Lenka - Like A Song Chords & Tabs

 

Lenka Chords & Tabs

Version: 1 Type: Tab 0 ratings
1 star 2 stars 3 stars 4 stars 5 stars
comments

Like A Song Tab

Intro
e|---1-1-----1-1-----3-3----3-3----1-1-----1-1----3-3----0-0-|
B|---3-3-----3-3-----3-3----3-3----3-3-----3-3----3-3----2-2-|
G|---2-2-----2-2-----3-3----3-3----2-2-----2-2----3-3----2-2-|
D|-0-------0---------------------0-------0-------------------|
A|-----------------------------------------------------0-----|
E|-----------------3------3---------------------3------------|


Verse
I can't forget you when your gone, your like a song it goes around in my head
How I regret it's been so long, oh what went wrong could it be something I said?
x2
e|----1-1-----1-1--------------3-3-----------1-1---------------1-1-------0-0|
B|----3-3-----3-3--------------3-3-----------3-3---------------3-3-------2-2|
G|----2-2-----2-2--------------3-3-----------2-2---------------2-2-------2-2|
D|-0-------0-------------------------------------------------0--------------|
A|-----------------------------------------0---------------------------0----|
E|---------------------------3----------------------------------------------|

Chorus
Time make it go faster, or just rewind, to back when I'm wrapped in your arms
Oh, ooooooo...
e|---3-3----3-3----1-1---1-1---3-3----3-3----0-0----1-1----3-3---1-1-----0--|
B|---3-3----3-3----3-3---3-3---3-3----3-3----2-2----3-1----3-3---3-3----2---|
G|---3-3----3-3----2-2---2-2---3-3----3-3----2-2----2-2----3-3---2-2---2----|
D|---------------0-----0-------------------2------0------------0-----2------|
A|--------------------------------------------------------------------------|
E|-3------3------------------3------3-------------------3-------------------|


Verse:
da da di dum da da da dum...

[ Tab from: http://www.guitartabs.cc/tabs/l/lenka/like_a_song_tab.html ]
Bridge:
All afternoon long, it's with me, the same song, 
you left a light on, inside me, my love
I can remember the way that it felt to be holding on to you...
x2
e|-----3-------3-------1------1-------3------3---------0------0-------------|
B|----3-3-----3-3-----3-3----3-3-----3-3----3-3-------2-2----2-2------------|
G|---3---3---3---3---2---2--2---2---3---3--3---3-----2---2--2---2-----------|
D|------------------0------0------------------------2------2----------------|
A|--------------------------------------------------------------------------|
E|-3--------3----------------------3------3---------------------------------|


Verse
I can't forget you when your gone, your like a song it goes around in my head
How I regret it's been so long, oh what went wrong could it be something I said?
x2
e|----1-1-----1-1--------------3-3-----------1-1---------------1-1-------0-0|
B|----3-3-----3-3--------------3-3-----------3-3---------------3-3-------2-2|
G|----2-2-----2-2--------------3-3-----------2-2---------------2-2-------2-2|
D|-0-------0-------------------------------------------------0--------------|
A|-----------------------------------------0---------------------------0----|
E|---------------------------3----------------------------------------------|


Chorus[different ending]
Time make it go faster, or just rewind, to back when I'm wrapped in your arms
Oh, ooooooo...
e|---3-3----3-3----1-1---1-1---3-3----3-3----0-0----1-1----3-3---1-1-0-----1|
B|---3-3----3-3----3-3---3-3---3-3----3-3----2-2----3-1----3-3---3-3-2----3-|
G|---3-3----3-3----2-2---2-2---3-3----3-3----2-2----2-2----3-3---2-2-2---2--|
D|---------------0-----0-------------------2------0------------0-----2--0---|
A|--------------------------------------------------------------------------|
E|-3------3------------------3------3-------------------3-------------------|
Comments