Lemonheads - Stove Chords & Tabs

 

Stove Chords & Tabs

Lemonheads Chords & Tabs

Version: 1 Type: Tab 0 ratings
1 star 2 stars 3 stars 4 stars 5 stars
comments

Stove Tab

   
#----------------------------------PLEASE NOTE---------------------------------#
#This file is the author's own work and represents their interpretation of the #
#song. You may only use this file for private study, scholarship, or research. #
#------------------------------------------------------------------------------##
#

# For the latest collection of Lemonheads chords, go to
# http://www.uark.edu/~cbray/lemon/
#
# If you have any corrections or additions to this file, please email them
# to cbray@comp.uark.edu
#

"Stove"

Chords by:  Chris Bray  (cbray@comp.uark.edu)


Weird chords:  A:  xxx454       A2/F#:  2x2200          D5/E:  xx2235
               D2/A:  x00230    D2/B:  x2x230           D2/C#:  x4x230


A7                           F#m7      G
e|--------------0----------------|------2-----3----------------------|-
B|--------0h2---2--2------0---2--|--2---2-----0----------------------|-
G| o---------------0------0---0--|--2---2-----0------2p0-------------|-
D| o---2------------------2------|--2---------0------------2p0-------|-
A|-----0-------------------------|--4---------3-----------------2p0--|-
E|-------------------------------|--2---------3----------------------|-

[ Tab from: http://www.guitartabs.cc/tabs/l/lemonheads/stove_tab.html ]
       A7                           F#m7      D5
e|--------------0----------------|------2-----5---------5---2--------|-
B|--------0h2---2--2------0---2--|--2---2-----3---------3---3--------|-
G| o---------------0------0---0--|--2---2-----2---------2---2------o |-
D| o---2------------------2------|--2---------0---------0----------o |-
A|-----0-------------------------|--4--------------------------------|-
E|-------------------------------|--2--------------------------------|-


     Bm                      D
e----2----------2---2--------2-----|-
B----3----------3---3--------3-----|-
G----4----------4---4--------2-----|-
D----4----------4---4--------0-----|-
A----2----------2---2--------------|-
E----------------------------------|-


{Ending}:

   A5                        G5       E5
e-------------|-----------------|----------0--------------|-
B-------------|-----------------|----------0--------------|-   Play repeated
G--2----------|--------------0--| o-------------------5/--|-   section 6
D--2----------|--------------0--| o-----------------------|-   times.
A--0----------|-----------------|-----2-------------------|-
E-------------|--------------3--|-----0-------------------|-


   A5                         F#m
e---------0----0-----------|------0--------------|-------------0-----------|-
B------3-----------3----2--|--2---------------2--|-------2----------2\-----|-
G--/6----------------------|-------------4-------|--4--------------------o |-
D--------------------------|---------------------|-----------------------o |-
A--------------------------|---------------------|-------------------------|-
E--------------------------|---------------------|-------------------------|-


   D2                                                    A5
e--0-------------0--|-----------------|---------------|----------------|-
B--3-------------3--|-----------------|---------------|----------------|-
G--2-------------2--|-----------------|---------------|--2-------------|-
D--0-------------0--|-----------------|---------------|--2-------------|-
A-------------------|-----------------|---------------|--0-------------|-
E-------------------|-----------------|---------------|----------------|-

Comments