Lemonheads - Mrs Robinson Chords & Tabs

 

Mrs Robinson Chords & Tabs

Lemonheads Chords & Tabs

Version: 2 Type: Bass Tab 0 ratings
1 star 2 stars 3 stars 4 stars 5 stars
comments

Mrs Robinson Bass Tab

   
Mrs. Robinson: Lemonheads
Tabbed by Paul Fivey
Comments etc to p.fivey@dundee.ac.uk

Intro: (muted guitar for 3 1/2 bars then)

G--------------------------------------------------
D---------------7------5/7-------------------------
A---------5-7--------------7-5-----3--2--0---------
E--7-7-7------------------------3------------------

G-------------------------
D-------------------------
A--5/7-7-7-7-7-7--5-------
E-------------------------

Chorus:

G--------------------------------------------------------------
D--------------------------------------------------------------
A-10-10-10-10-10-10-7-7-7-7-7-7--10-10-10-10-10-10-7-7-7-7-7-7-
E--------------------------------------------------------------

G-------------------------------------
D-10-10-10-10-10-10-12-12-12-12-12-12-
A-------------------------------------
E-------------------------------------

G--------------------------------------------------------------
D--------------------------------------------------------------
A-10-10-10-10-10-10-7-7-7-7-7-7--10-10-10-10-10-10-7-7-7-7-7-7-
E--------------------------------------------------------------
[ Tab from: http://www.guitartabs.cc/tabs/l/lemonheads/mrs_robinson_btab_ver_2.html ]
G-------------------------------------
D-10-10-10-10-10-10-7-7-7-7-7-7-------
A--------------------------------7----
E-------------------------------------

Verse:

G-------------------------------------------------
D-------------------------------------------------
A---------5-7---------------5-7-------------------
E--7-7-7-------------7-7-7------------------------

G--7-7-7--------------------------------------------------
D-----------/////77777777---------------------------------
A-------------- ---------------------------5-----3--2--0--
E---------------------------------------------3-----------

G----------------------------------
D---------5-7-X-X---5--------------
A--X-X-/7---------7---7-7-7-7-7-5--
E----------------------------------

Chorus as before

Verse 2 as Verse 1

Chorus as before

Verse 3 as Verse 1

Chorus as before

Outro:

G-------------------------------------------------
D-------------------------------------------------
A---------5-7---------------5-7-------------------
E--7-7-7-------------7-7-7------------------------

Six times then:

G--------------------------------------------------------
D--------------------------------------------------------
A---------5-7-7-7-7-7-7-7-7--------5-7-7-7-7-7-7-7-7-7---
E--7-7-7--------------------7-7-7------------------------

Repeat to fade
Comments