Lemonheads - Left For Dead Chords & Tabs

 

Left For Dead Chords & Tabs

Lemonheads Chords & Tabs

Version: 1 Type: Chords 0 ratings
1 star 2 stars 3 stars 4 stars 5 stars
comments

Left For Dead Chords

   
#----------------------------------PLEASE NOTE---------------------------------#
#This file is the author's own work and represents their interpretation of the #
#song. You may only use this file for private study, scholarship, or research. #
#------------------------------------------------------------------------------##
#

# For the latest collection of Lemonheads chords, go to
# http://www.uark.edu/~cbray/lemon/
#
# If you have any corrections or additions to this file, please email them
# to cbray@comp.uark.edu
#

"Left for Dead"

Typed by:  Chris Bray (cbray@comp.uark.edu)

(For a more accurate version of this, please buy the songbook - "The Best of
the Lemonheads").

Weird chords:
Dm    : x57765          Bm    : x24432          B2    : x24422
G     : 355433          A2/C# : x4220x          Bm11  : x20200
A2    : x02200          G6/9  : 3x2200          Asus4 : x02230
A5v   : 577xxx          A5    : x022xx          E5    : x799xx
B5    : x244xx          B5/G# : 4244xx          D5    : xx023x


Intro:
[ Tab from: http://www.guitartabs.cc/tabs/l/lemonheads/left_for_dead_crd.html ]
    D        B                         D                      B
|---------------|--------------------------|----------------------|
|---7--7--7--4--|-------4---4--4--4----7---|---7---7--7--7----4---|
|---7--7--7--4--|-------4---4--4--4----7---|---7---7--7--7----4---|
|---7--7--7--4--|-------4---4--4--4----7---|---7---7--7--7----4---|
|---5--5--5--2--|-------2---2--2--2----5---|---5---5--5--5----2---|
|---------------|--------------------------|----------------------|


|-----------------------------|--------------------------|
|--------4-------x--x--x--x---|--x--x--x--x--x--x--x--x--|
|--------4-------x--x--x--x---|--x--x--x--x--x--x--x--x--|
|--------4-------x--x--x--x---|--x--x--x--x--x--x--x--x--|
|--------2-------x--x--x--x---|--x--x--x--x--x--x--x--x--|
|-----------------------------|--------------------------|

| Dm | Bm B2 Bm | G | Bm B2 Bm |
| A2/C# | A2/C# | Bm11 | Bm11 |
| A2 | A2 | G6/9 | G6/9 | D5 |


Rhythmn Fig.1 :

E|--------------------------|--------------------------|
B|--------------------------|--------------------------|
G|--------------------------|--------------------------|
D|--------------------------|--------------------------|
A|--------------------------|--------------------------|
e|--3--3--3--2--2--2--0--0--|--0--3--3--3--2--2--0--0--|
Comments