Lemonheads - Knoxville Girl Chords & Tabs

 

Knoxville Girl Chords & Tabs

Lemonheads Chords & Tabs

Version: 1 Type: Bass Tab 0 ratings
1 star 2 stars 3 stars 4 stars 5 stars
comments

Knoxville Girl Bass Tab

KNOXVILLE GIRL

(as performed by the Lemonheads on Car Button Cloth)

TABBED BY:Skankbot

I think this is 3/4 time. This pattern repeats throughout
the song.


G|------------------------------------------|
D|------------------------------------------|
A|-0-5--5-5--0-5--5-5-4------------4-5--5-5-|
E|----------------------5-3--3-3-5----------|
[ Tab from: http://www.guitartabs.cc/tabs/l/lemonheads/knoxville_girl_btab.html ]
G|-------------------------------------------------------|
D|-------------------------------------------------------|
A|-0-5--5-5--0-5--5-5-0--------------5-0--0-0-3-4-5--5-5-|
E|----------------------3-0--0-0-5/7---------------------|

G|--------------------------------|
D|--------------------------------|
A|-0-5--5-5-4------------4-5--5-5-|
E|------------5-3--3-3-5----------|

G|------------------------------------------|
D|------------------------------------------|
A|-0-5--5-5--0-5--5-5-6-7-0--0-0-3-4-5--5-5-|
E|------------------------------------------|

G|------------------------------|
D|------------------------------|
A|-5-5--5-5--5-5--5-5--5-5--5-5-|
E|------------------------------|

Comments