Lemonheads - Fucked Up Chords & Tabs

 

Fucked Up Chords & Tabs

Lemonheads Chords & Tabs

Version: 1 Type: Tab 0 ratings
1 star 2 stars 3 stars 4 stars 5 stars
comments

Fucked Up Tab

   
#----------------------------------PLEASE NOTE---------------------------------#
#This file is the author's own work and represents their interpretation of the #
#song. You may only use this file for private study, scholarship, or research. #
#------------------------------------------------------------------------------##
#

# For the latest collection of Lemonheads chords, go to
# http://www.uark.edu/~cbray/lemon/
#
# If you have any corrections or additions to this file, please email them
# to cbray@comp.uark.edu
#

"Fucked Up"

From: Ryan Johnstone

Chords Used ( all barre chords )

    E   B   A   G   D   C
e   7   7   5   10  5   3
B   9   7   5   12  7   5
G   9   8   6   12  7   5
D   9   9   7   12  7   5
A   7   9   7   10  5   3
E   7   7   5   10  5   3


Chord Sequences

Chord1
    E             B             A             B
e |-7-7-7-7-7-7-|-7-7-7-7-7-7-|-5-5-5-5-5-5-|-7-7-7-7-7-7-|
B |-9-9-9-9-9-9-|-7-7-7-7-7-7-|-5-5-5-5-5-5-|-7-7-7-7-7-7-|
G |-9-9-9-9-9-9-|-8-8-8-8-8-8-|-6-6-6-6-6-6-|-8-8-8-8-8-8-|
D |-9-9-9-9-9-9-|-9-9-9-9-9-9-|-7-7-7-7-7-7-|-9-9-9-9-9-9-|
A |-7-7-7-7-7-7-|-9-9-9-9-9-9-|-7-7-7-7-7-7-|-9-9-9-9-9-9-|
E |-7-7-7-7-7-7-|-7-7-7-7-7-7-|-5-5-5-5-5-5-|-7-7-7-7-7-7-|

[ Tab from: http://www.guitartabs.cc/tabs/l/lemonheads/fucked_up_tab.html ]
Chord2
     E  A  B     E  A  B     E  A  B     E  A  B  E
e |--7--5--7--|--7--5--7--|--7--5--7--|--7--5--7--7--|
B |--9--5--7--|--9--5--7--|--9--5--7--|--9--5--7--9--|
G |--9--6--8--|--9--6--8--|--9--6--8--|--9--6--8--9--|
D |--9--7--9--|--9--7--9--|--9--7--8--|--9--7--9--9--|
A |--7--7--9--|--7--7--9--|--7--7--9--|--7--7--9--7--|
E |--7--5--7--|--7--5--7--|--7--5--7--|--7--5--7--7--|


Chord3
     G   E  D  C  C  C     G   E  D  A  A  A
e |--10--7--5--3--3--3--|--10--7--5--5--5--5--|
B |--12--9--7--5--5--5--|--12--9--7--5--5--5--|
G |--12--9--7--5--5--5--|--12--9--7--6--6--6--|
D |--12--9--7--5--5--5--|--12--9--7--7--7--7--|
A |--10--7--5--3--3--3--|--10--9--7--7--7--7--|
E |--10--7--5--3--3--3--|--10--9--5--5--5--5--|


Intro:

Play 'Chord1' sequence twice for the Intro.

Verse: (using 'Chord1' sequence)

Chorus:

Play 'Chord3' sequence with following lyrics

              
G E D C C C G E D A A A

G E D C C C G E D A A A
            
G E D C C C G E D A A A
               
G E D C C C G E D A A A

Song structure -

Intro
Verse
Verse
Chorus
Verse
Comments