Lemonheads - Die Right Now Chords & Tabs

 

Die Right Now Chords & Tabs

Lemonheads Chords & Tabs

Version: 1 Type: Tab 0 ratings
1 star 2 stars 3 stars 4 stars 5 stars
comments

Die Right Now Tab

   
#----------------------------------PLEASE NOTE---------------------------------#
#This file is the author's own work and represents their interpretation of the #
#song. You may only use this file for private study, scholarship, or research. #
#------------------------------------------------------------------------------#
#

# For the latest collection of Lemonheads chords, go to
# http://www.uark.edu/~cbray/lemon/
#
# If you have any corrections or additions to this file, please email them
# to cbray@comp.uark.edu
#

"Die Right Now"

Chords by:  Chris Bray (cbray@comp.uark.edu)


Intro:

e----------------------------|------------------|--------------------|-
B----------------------------|------------------|--------------------|-
G----------------------------|------------------|--------------------|-
D----------------------------|-----_____________|__________----------|-
A-------------2--3--0--2-----|-0--2-------------|--(3)-----2---------|-
E--0-0-0--3-0-------------3--|------------------|--------------------|-

[ Tab from: http://www.guitartabs.cc/tabs/l/lemonheads/die_right_now_tab.html ]
     E             C#5               B5              F#5      A5
e--------------------|-----------------|---------------|------------------|
B--------------------|-----------------|---------------|------------------|
G o--1-------------6-|---------------4-|---------------|----------------o |
D o--2-------------6-|---------------4-|---------------|----------------o |
A----2-------------4-|---------------2-|-------------4-|-----4/7---7------|
E----x--0-0-0-0-0----|----0-0-0-0-0----|---0-0-2-0-2-2-|--0--2/5---5--0---|



E              
| B5 | B5 | G5 | G5 |    (x4)


(spoke
| F#5 | F#5 | F#5 | F#5 |



     E             C#5               B5              F#5      A5
e--------------------|-----------------|---------------|------------------|
B--------------------|-----------------|---------------|------------------|
G o--1-------------6-|---------------4-|---------------|----------------o |
D o--2-------------6-|---------------4-|---------------|----------------o |
A----2-------------4-|---------------2-|-------------4-|-----4/7---7------|
E----x--0-0-0-0-0----|----0-0-0-0-0----|---0-0-2-0-2-2-|--0--2/5---5--0---|


   E             C#m                B                  F#5         A5       E
e-----0-0-0-0-0--4--|---------------7--|------------------|-------------------|
B-----0-0-0-0-0--5--|---------------7--|------------------|-------------------|
G-----1-1-1-1-1--6--|---------------8--|------------------|-------------------|
D----------------6--|---------------9--|------------------|-------------------|
A----------------4--|---------------9--|---------------4--|-----4--7----7---2 |
E--0--x-x-x-x-x-----|----0-0-0-0-0--7--|-----0-0-0-0-0-2--|--0--2--5----5---0-|
Comments