Lemar - I Believe In A Thing Called Love Chords & Tabs

 

I Believe In A Thing Called Love Chords & Tabs

Lemar Chords & Tabs

Version: 1 Type: Tab 0 ratings
1 star 2 stars 3 stars 4 stars 5 stars
comments

I Believe In A Thing Called Love Tab

Song:    I Believe in a Thing Called Love 
Artist:  Lemar
Album:  
Tabber:  Marty

This tab has been created with Easy Tab Creator

Intro   W/Chorus pedal

E|15\-----------3-------------------------------------------------------------|
B|15\-----------3--------------8-----------------------------------------10---|
G|15\-----------3-------8------8----------------------------------10-----10---|
D|--------5-------------8--------------8--H--10--P--8-------------10----------|
A|--------5-------------6------------------------------10---8-----8-----------|
E|--------3-------------------------------------------------------------------|



E|---3-----3------------------------------|
B|---3-----3------------------------------|
G|---3-----3-----3--H--5--P--3--------3---|
D|---5----------------------------5-------|
A|---5------------------------------------|
E|---3------------------------------------|



E|-------3--------------------------------------------|
B|-------3-------------8--------10--------------------|
G|3------3------8------8--------10--------------------|
D|5-------------8---------------10--------------------|
A|5-------------6---------------8---------------------|
E|3---------------------------------------------------|



Verse x 2
[ Tab from: http://www.guitartabs.cc/tabs/l/lemar/i_believe_in_a_thing_called_love_tab.html ]
E|9\----------3----------------------------------------------------------------|
B|------------3--------------8-----------------------------------------10------|
G|------3-----3-------8------8----------------------------------10-----10------|
D|------5-------------8--------------8--H--10--P--8-------------10-------------|
A|------5-------------6------------------------------10---8-----8--------------|
E|------3----------------------------------------------------------------------|



E|--3------3------------------------------|
B|--3------3------------------------------|
G|--3------3-----3--H--5--P--3--------3---|
D|--5-----------------------------5-------|
A|--5-------------------------------------|
E|--3-------------------------------------|

						       1st time     2nd time
					               |--------|   |-------------|
E|-------3------------------------------------------------------|-----------3-----|
B|-------3-------------8-----------------------------------10---|----10-----3-----|
G|3------3------8------8-----------------------------------10---|----10-----3-----|
D|5-------------8-------------8--H--10--P--8---------------10---|----10-----5-----|
A|5-------------6------------------------------10----8-----8----|----8------5-----|
E|3-------------------------------------------------------------|-----------3-----|


Bridge


E|5-------6-------5-------3-------5-------6-------1--------------|
B|6-------6-------6-------3-------6-------6-------1--------------|
G|5-------8-------5-------3-------5-------8-------2--------------|
D|7-------8-------7-------5-------7-------8-------3--------------|
A|5-------6-------5-------5-------5-------6-------3--------------|
E|------------------------3-----------------------1--------------|


Chorus x 2


E|-------3-----------------------------------3--------|
B|-------3-------------8-------------10------3--------|
G|3------3------8------8------10-----10------3--------|
D|5-------------8-------------10-------------5--------|
A|5-------------6-------------8--------------5--------|
E|3------------------------------------------3--------|


Comments / Hate mail  to :

pisshead74@hotmail.com












Comments