Leftover Crack - One Dead Cop Chords & Tabs

 

One Dead Cop Chords & Tabs

Leftover Crack Chords & Tabs

Version: 2 Type: Tab 0 ratings
1 star 2 stars 3 stars 4 stars 5 stars
comments

One Dead Cop Tab

This is my favourite song and it's dope to play in a band so i tabbed all of the parts. enjoy

note: in the song, the intro is acoustic, but clean is fine.

intro: (clean)

e------------------------------------------------------------------|
b------------------------------------------------------------------|
g--99999--99999-------------------------------------------6-8-9----|
d--99999--99999---7-9-11----------------------------------6-8-9----|
a--77777--77777---7-9-11-111111----1111111111-11111111----4-6-7----|
e-----------------5-7-9--9-9-9-----9-9-9-9-9--9-9-9-9-9------------|

at the second time, this is played and repeated through the intro.

e------------------------------------------------------------------|
b------------------------------------------------------------------|
g------------------9-----------------------------------------------|
d-----------------9-9----------------------------------------------|
a----------------7-------------------------------------------------|
e------------------------------------------------------------------|

intro part 2:

this is where it goes heavy like hell:

e------------------------------------------------------------------|
b------------------------------------------------------------------|
g--xxxx-9-xxxx-9---------------------------6-8-9-------------------|
d--xxxx-9-xxxx-9--7-9-11-------11------11--6-8-9-------------------|
a--xxxx-7-xxxx-7--7-9-11-------11------11--4-6-7-------------------|
e-----------------5-7-9---xxxx-9--xxxx-9---------------------------|

and this goes with the intro too, but isn't in the actual song:
[ Tab from: http://www.guitartabs.cc/tabs/l/leftover_crack/one_dead_cop_tab_ver_2.html ]
e-----0----0----0----0----0----0----0----0-------------------------|
b----0----0----0----0----0----0----0----0--------------------------|
g------------------------------------------------------------------|
d------------------------------------------------------------------|
a------------0----0----4----4----0----0----------------------------|
e--0----0----------------------------------------------------------|

verse: (heavy distortion)

e-------------------------------------------------|
b-------------------------------------------------|
g-----99999999-----------66666666-----------------|
d-----99999999--77777777-66666666--77777777-------|
a-----77777777--77777777-44444444--77777777-------|
e---------------55555555-----------55555555-------|

chorus:

e------------------------------------------------------------------|
b------------------------------------------------------------------|
g----666-9-7-6-------999-12-11-9-----------------------------------|
d----666-9-7-6-7-----999-12-11-9-10--------------------------------|
a----444-7-5-4-7-----777-10-9--7-10--------------------------------|
e--------------5------------------8--------------------------------|

Those are all the guitar parts, here's bass.

G---------------------------------------------------|
D---------------------------------------------------|
A--00000000-77777777-0-2-4-0-44444444---------------|
E---------------------------------------------------|

G---------------------------------------------------|
D---------------------------------------------------|
A--7777777777-0000000000-4444444444-2222222222------|
E---------------------------------------------------|

G---------------------------------------------------|
D---------------------------------------------------|
A--44444444--0-2-0----------77777777-2-4-6----------|
E-----------------------4-2-------------------------|

Ill have drums soon!

enjoy.

ALL TABS BY WILL CHESTON
Comments