Leftover Crack - Crack City Rockers Chords & Tabs

 

Crack City Rockers Chords & Tabs

Leftover Crack Chords & Tabs

Version: 2 Type: Bass Tab 0 ratings
1 star 2 stars 3 stars 4 stars 5 stars
comments

Crack City Rockers Bass Tab

   
-------------------------------------------------------------------------------
	CRACK CITY ROCKERS – Leftover Crack
-------------------------------------------------------------------------------

Tabbed By: Jess Hawk
E-mail: jessnumber2@hotmail.com (comments, concern, mail me/add me…)

Tuning: Regular EADG

Intro: (x1)
G ---------------------------------------------------------------------------|
D ---------------------------------------------------------------------------|
A ----------------------------6-----6>---------------------------------------|
E ----3-4------4-6------6----------------------------------------------------|

Post-Intro:
G -------------------------------------------------------------------------------------|
D -------------------------------------------------------------------------------------|
A -----6666--5555--3333----------------------------6666------6--- 3-5-6----------------|
E -----------------------------3333---4444--6666-----------------6---------------------|

Verse: (x2)
G ----------------------------------------------------------------------------|
D -----5----------------------------------------------------------------------|
A --6----6--------5-----------3---------3---6p5-------8-----------------------|
E ---------------6---6-------4---4-------------------6------------------------|


G ----------------------------------------------------------------------------------------------|
D ------8--------------------------5-----------------------------------------------8---------8--|
A ---6----6---------8----------3----3-------5-------------6-----------8--5--6----6----6---6-----|
E ----------------6----6-------------------3-----3-------4---4-------6--------------------------|


Chorus:
G ---------------------------------------------------------------------------------------|
D ---------------------------------------------------------------------------------------|
A --6666-------------------------------------6666----------------------------------------|
E -----------3333---44- 33------6666--------------3333---44--33---6666-------------------|
[ Tab from: http://www.guitartabs.cc/tabs/l/leftover_crack/crack_city_rockers_btab_ver_2.html ]
G -------------------------------------------------------------------------------------|
D -------------------------------------------------------------------------------------|
A -----6666--5555--3333----------------------------6666------6--- 3-5-6----------------|
E -----------------------------3333---4444--6666-----------------6---------------------|


Verse: (x2)
G ----------------------------------------------------------------------------|
D -----5----------------------------------------------------------------------|
A --6----6--------5-----------3---------3---6p5-------8-----------------------|
E ---------------6---6-------4---4-------------------6------------------------|


G ----------------------------------------------------------------------------------------------|
D ------8--------------------------5-----------------------------------------------8---------8--|
A ---6----6---------8----------3----3-------5-------------6-----------8--5--6----6----6---6-----|
E ----------------6----6-------------------3-----3-------4---4-------6--------------------------|

Chorus:
G ---------------------------------------------------------------------------------------|
D ---------------------------------------------------------------------------------------|
A --6666-------------------------------------6666----------------------------------------|
E -----------3333---44- 33------6666--------------3333---44--33---6666-------------------|

G -------------------------------------------------------------------------------------|
D -------------------------------------------------------------------------------------|
A -----6666--5555--3333----------------------------6666------6--- 3-5-6----------------|
E -----------------------------3333---4444--6666-----------------6---------------------|

During Solo:
Verse: (x2)
G ----------------------------------------------------------------------------|
D -----5----------------------------------------------------------------------|
A --6----6--------5-----------3---------3---6p5-------8-----------------------|
E ---------------6---6-------4---4-------------------6------------------------|


G ----------------------------------------------------------------------------------------------|
D ------8--------------------------5-----------------------------------------------8---------8--|
A ---6----6---------8----------3----3-------5-------------6-----------8--5--6----6----6---6-----|
E ----------------6----6-------------------3-----3-------4---4-------6--------------------------|


| /  slide up
| \  slide down
| h  hammer-on
| p  pull-off
| ~  vibrato
| +  harmonic
| x  Mute note
===============================================================================
Comments