Leftover Crack - Athiest Anthem Chords & Tabs

 

Athiest Anthem Chords & Tabs

Leftover Crack Chords & Tabs

Version: 1 Type: Bass Tab 0 ratings
1 star 2 stars 3 stars 4 stars 5 stars
comments

Athiest Anthem Bass Tab

hey kids! i dont know whats what as far as showing rythem on tabs, but MARK MY WORDS
these are the 100% correct notes for the entire athiest anthem. you wanna dissagree?
then prove me wrong and show me yours.

INTRO PT. ONE
G)----------|
D)--5-4-2-3-|
A)----------|
E)----------|

INTRO PT. TWO
G)----7-5-4--7-5-4--4-2-0--2-4-5-|
D)--5-------4------2------3------|
A)-------------------------------|
E)-------------------------------|

VERSE
  (from high upon your crucifix...)
G)------------------------------------------------|
D)------------------------------------------------|
A)-------------------3-33-------------------------|
E)-3-33--2-22--0-00--------3-33--2-22--0-00--1-11-|
[ Tab from: http://www.guitartabs.cc/tabs/l/leftover_crack/athiest_anthem_btab.html ]
CHORUS
  (and all the boys in the sXe scene...)
G)-----------------------------------|
D)-5555554444444------0----0-2---2-3-|
A)----------------------2-3----3-----|
E)-----------------------------------|

BRIDGE
  (nuclear apox spells your doom...)
G)-----------------------------------------------|
D)---------------------------------0-0-0-0-2-3-4-|
A)-------------------3-3-3-3-0-2-3---------------|
E)-3-3-3-3--0-0-0-0------------------------------|

(CONT.)
G)-------------------------------------------------------|
D)--5555555557777755444444444----------------------------|
A)---------------------------5555555--7-7-7-7------------|
E)--------------------------------------------8--7--5--2-|

thats about it, listen to the song for rythem and number of times each part is played
and figure the end out for yourself. i saw this band 3 times in three months in 04',
philly, upper darby and tompkins square park. i bet youre jeallous... but if you wanna
give me props (or diss me) send an email to satansnameisnick@aol.com

tabbed by agent graves, punk
Comments