Left Unsaid - When We Were There Chords & Tabs

 

When We Were There Chords & Tabs

Left Unsaid Chords & Tabs

Version: 1 Type: Tab 0 ratings
1 star 2 stars 3 stars 4 stars 5 stars
comments

When We Were There Tab

This is like my first tab. So just work with me! I tried really hard to transcript it so
yeah! It may be rough around the edges but the is the best i can do. Its about the whole
song. Like it isn't all of it and yeah! Well here it goes HOMIE!!!

Stanard Tuning(eadbge)

First Guitar (no distortion)This plays at the same time the second guitar is playing.
e]-------------------------------
b]-------------------------------
g]--0--0--0-0--0--0---0---0--0--0
d]-------------------------------
a]-------------------------------
E]-------------------------------
[ Tab from: http://www.guitartabs.cc/tabs/l/left_unsaid/when_we_were_there_tab.html ]
Second Guitar (No distortion)
e]-----------------------------------------------
b]-----------------------------------------------
g]-----------------------------------------------
d]----9-9-9--7-7-7--10-10-10--5-5-5--7-7-7
a]-----------------------------------------------
E]-----------------------------------------------
After the second guitar's part is over the 0 keeps playing until this.

e]-----------------------------------------------
b]-----------------------------------------------
g]-----------------------------------------------
d]----9-9-9--7-7-7--10-10-10--5-5-5--7-7-7-------
a]----9-9-9--7-7-7--10-10-10--5-5-5--7-7-7-------
E]----9-9-9--7-7-7--10-10-10--5-5-5--7-7-7-------


Thats alll i know for now but i'll update it later on.
Cause its hard to transcribe tabs from a really GOOOD band!
Comments