Left Hand Solution - Angel With The Last Plagues Chords & Tabs

 

Angel With The Last Plagues Chords & Tabs

Left Hand Solution Chords & Tabs

Version: 1 Type: Tab 0 ratings
1 star 2 stars 3 stars 4 stars 5 stars
comments

Angel With The Last Plagues Tab

   
ANGEL WITH THE LAST PLAGUES By Left Hand Solution
Dunno what album, got it off Nuclear Blasts "10 Years Nuclear" cd#3

Transcribed by Dementia
spowell@iinet.net.au

**Notes** - There's a lot of distortion in here, but technically its pretty 
straightforward, and a great example of power chord based heavy metal.  I've 
marked the timing in as well cos it helps to know what I mean. 

(s) = slide
(m) = total mute

RIFF A
  F#                              B         D       E         G         F#
|-----------------|-----------------|-----------------|--------------------|
|-----------------|-----------------|-----------------|------------------3-|
|-3---3-3-3-3---3-|---3-3-3-3-3---4-|---4-4-7---7-7-9-|---9-9-12---12-12-4-|
|-4---4-4-4-4---4-|---4-4-4-4-4---4-|---4-4-7---7-7-9-|---7-7-12---10-10-4-|
|-4---4-4-4-4---4-|---4-4-4-4-4---2-|---2-2-5---5-5-7-|---7-7-10---10-10-2-|
|-2---2-2-2-2---2-|---2-4-2-2-2-----|-----------------|--------------------|
  1 + 2 + 3 + 4 +   1 + 2 + 3 + 4 +   1 + 2 + 3 + 4 +   1 + 2 +  3  +  4 +


                  F#            D   (s) C# (s)  D  E 
E-|-----------------|-----------------|------------------|
B-|-----------------|-----------------|------------------|
G-|-3-3-3-3---3---3-|-3-3-3-3---7---76|-6---67--7-79-9-9-|
D-|-4-4-4-4---4---4-|-4-4-4-4---7---76|-6---67--7-79-9-9-|
A-|-4-4-4-4---4---4-|-4-4-4-4---5---54|-4---45--5-57-7-7-|
E-|-2-2-2-2---2---2-|-2-2-2-2---------|------------------|
    1 + 2 + 3 + 4 +   1 + 2 + 3 + 4 +   1 + 2 + 3 +  4 +  

(Repeat Twice)

RIFF B
    D   A#            C (m) F# 
E-|-----------------|-----------------|
B-|-----------------|-----------------|
G-|-7-7-3-----------|-5-(5)-3---------|
D-|-5-5-3-----------|-5-(5)-4---------|
A-|-5-5-1-----------|-3-(3)-4---------|
E-|-----------------|-----------------|
    1 + 2 + 3 + 4 +   1 + 2 + 3 + 4 + 

(Repeat six times - first two is a linking part, the last four are the verse, 
then back to the intro/chorus, then repeat)

[ Tab from: http://www.guitartabs.cc/tabs/l/left_hand_solution/angel_with_the_last_plagues_tab.html ]
RIFF C
  F#                              A              C#/G#             A G# 
|-----------------|-----------------|-----------------|----------------|
|-----------------|-----------------|-----------------|----------------|
|-3---3-3-3-3---3-|---3-3-3-3-3---2-|-----------2-----|----------------|
|-4---4-4-4-4---4-|---4-4-4-4-4---2-|-----------2-6---|----------------|
|-4---4-4-4-4---4-|---4-4-4-4-4---0-|-----------0-4---|------------0---|
|-2---2-2-2-2---2-|---2-4-2-2-2-----|-------------4---|--------------4-|
  1 + 2 + 3 + 4 +   1 + 2 + 3 + 4 +   1 + 2 + 3 + 4 +  1 + 2 + 3 + 4 +

  F#                              A                    B          G#
|-----------------|-----------------|----------------|----------------|
|-----------------|-----------------|----------------|----------------|
|-3---3-3-3-3---3-|---3-3-3-3-3---2-|----------------|-4-----------3--|
|-4---4-4-4-4---4-|---4-4-4-4-4---2-|----------------|-4-----------4--|
|-4---4-4-4-4---4-|---4-4-4-4-4---0-|-----------0---0|-2-----2-0---4--|
|-2---2-2-2-2---2-|---2-4-2-2-2-----|-------------4--|-----------4-2--|
  1 + 2 + 3 + 4 +   1 + 2 + 3 + 4 +   1 + 2 + 3 + 4 +  1 + 2 + 3 + 4 +

RIFF D
  F#                              A              C#/G#  (hold chord)
|-----------------|-----------------|-----------------|----------------|
|-----------------|-----------------|-----------------|----------------|
|-3---3-3-3-3---3-|---3-3-3-3-3---2-|-----------2-----|----------------|
|-4---4-4-4-4---4-|---4-4-4-4-4---2-|-----------2-6---|----------------|
|-4---4-4-4-4---4-|---4-4-4-4-4---0-|-----------0-4---|----------------|
|-2---2-2-2-2---2-|---2-4-2-2-2-----|-------------4---|----------------|
  1 + 2 + 3 + 4 +   1 + 2 + 3 + 4 +   1 + 2 + 3 + 4 +  1 + 2 + 3 + 4 +

  F#                              A                    B   
|-----------------|-----------------|----------------|----------------|
|-----------------|-----------------|----------------|----------------|
|-3---3-3-3-3---3-|---3-3-3-3-3---2-|----------------|-4--------------|
|-4---4-4-4-4---4-|---4-4-4-4-4---2-|----------------|-4--------------|
|-4---4-4-4-4---4-|---4-4-4-4-4---0-|-----------0---0|-2--------------|
|-2---2-2-2-2---2-|---2-4-2-2-2-----|-------------4--|----------------|
  1 + 2 + 3 + 4 +   1 + 2 + 3 + 4 +   1 + 2 + 3 + 4 +  1 + 2 + 3 + 4 +

(Repeat Twice, then two quick F# chords, letting last one ring)


STRUCTURE:
Riff A x 2
Riff B x 6
Riff A x 2
Riff B x 6
Riff C
Riff D x 2
F# x 2


Any comments, corrections or suggestion mail
spowell@iinet.net.au
Comments