Left Front Tire - Bring You Down Chords & Tabs

 

Bring You Down Chords & Tabs

Left Front Tire Chords & Tabs

Version: 1 Type: Bass Tab 0 ratings
1 star 2 stars 3 stars 4 stars 5 stars
comments

Bring You Down Bass Tab

Title: Bring You Down
Artist: Left Front Tire
Tabbed by: Blake Rakoczi
E-Mail: effromtheretardedrabbit@hotmail.com

~ = Let Ring

First Verse - (Feel frustration sometimes...)
G|-------------------------------------------------------------------
D|-------------------------------------------------------------------
A|-3----------------------------------------------------------------- x1
E|------------------3----------------5----------------1-1-1-1-3-3-3-3

G|-------------------------------------------------------------------
D|-------------------------------------------------------------------
A|-3-3-3-3-3-3-3-3--------------------------------------------------- x1
E|------------------3-3-3-3-3-3-3-3--5-5-5-5-5-5-5-5--1-1-1-1-3-3-3-3

G|-------------------------------------------------------------------
D|-------------------------------------------------------------------
A|-3-----3----------------------------------------------------------- x2
E|----------3-----3--5-----5--1-----1--------------------------------

Chorus - (I'm not trying to bring you down...)
G|-------------------------------------------------------------------
D|-------------------------------------------------------------------
A|-7-7-7-7----------------------------------------------------------- x1
E|----------7-7-7-7--5-5-5-5-5-5-5-5---------------------------------

G|-------------------------------------------------------------------
D|-------------------------------------------------------------------
A|-7-7-7-7----------------------------------------------------------- x1
E|----------7-7-7-7--9-9-9-9--5-5-5-5--------------------------------

G|-------------------------------------------------------------------
D|-------------------------------------------------------------------
A|-7-7-7-7----------------------------------------------------------- x1
E|----------7-7-7-7--5-5-5-5-5-5-5-5---------------------------------

G|-------------------------------------------------------------------
D|-------------------------------------------------------------------
A|-7-7-7-7-7-7-7-7--------------------------------------------------- x1
E|------------------7-7-7-7-7-7-7-7----------------------------------

G|-------------------------------------------------------------------
D|-------------------------------------------------------------------
A|-5----------------------------------------------------------------- x3
E|----5--7--3-3-3----------------------------------------------------

G|-------------------------------------------------------------------
D|-------------------------------------------------------------------
A|------------------------------------------------------------------- x1
E|-2~~~~--3~~~~------------------------------------------------------

Second Verse
G|-------------------------------------------------------------------
D|-------------------------------------------------------------------
A|-3~~~~~~~~--------------------------------------------------------- x1
E|------------3~~~~~~~~--5~~~~~~~~--1~~~~--3~~~~---------------------

G|-------------------------------------------------------------------
D|-------------------------------------------------------------------
A|-3-3-3-3-3-3-3-3--------------------------------------------------- x1
E|------------------3-3-3-3-3-3-3-3--5-5-5-5-5-5-5-5--1-1-1-1-3-3-3-3

G|-------------------------------------------------------------------
D|-------------------------------------------------------------------
A|-3-----3----------------------------------------------------------- x2
E|----------3-----3--5-----5--1-----1--------------------------------

Chorus
G|-------------------------------------------------------------------
D|-------------------------------------------------------------------
A|-7-7-7-7----------------------------------------------------------- x1
E|----------7-7-7-7--5-5-5-5-5-5-5-5---------------------------------

G|-------------------------------------------------------------------
D|-------------------------------------------------------------------
A|-7-7-7-7----------------------------------------------------------- x1
E|----------7-7-7-7--9-9-9-9--5-5-5-5--------------------------------
[ Tab from: http://www.guitartabs.cc/tabs/l/left_front_tire/bring_you_down_btab.html ]
G|-------------------------------------------------------------------
D|-------------------------------------------------------------------
A|-7-7-7-7----------------------------------------------------------- x1
E|----------7-7-7-7--5-5-5-5-5-5-5-5---------------------------------

G|-------------------------------------------------------------------
D|-------------------------------------------------------------------
A|-7-7-7-7-7-7-7-7--------------------------------------------------- x1
E|------------------7-7-7-7-7-7-7-7----------------------------------

G|-------------------------------------------------------------------
D|-------------------------------------------------------------------
A|-5----------------------------------------------------------------- x3
E|----5--7--3-3-3----------------------------------------------------

G|-------------------------------------------------------------------
D|-------------------------------------------------------------------
A|------------------------------------------------------------------- x1
E|-2~~~~--3~~~~------------------------------------------------------

Bridge
G|-------------------------------------------------------------------
D|-------------------------------------------------------------------
A|-3----------------------------------------------------------------- x2
E|------------------3----------------5----------------1--------3-----

G|-------------------------------------------------------------------
D|-------------------------------------------------------------------
A|-3-----3-----3-----3----------------------------------------------- x1
E|----------------------------3-----3-----3-----3--------------------

G|-------------------------------------------------------------------
D|-------------------------------------------------------------------
A|------------------------------------------------------------------- x1
E|-5-----5-----5-----5--------1-----1--------3-----3-----------------

G|-------------------------------------------------------------------
D|-------------------------------------------------------------------
A|-3-----3-----3-----3----------------------------------------------- x1
E|----------------------------3-----3-----3-----3--------------------

G|-------------------------------------------------------------------
D|-------------------------------------------------------------------
A|------------------------------------------------------------------- x1
E|-5-----5-----5-----5--------1-----1--------3-----3-----------------

Chorus
G|-------------------------------------------------------------------
D|-------------------------------------------------------------------
A|-7-7-7-7----------------------------------------------------------- x1
E|----------7-7-7-7--5-5-5-5-5-5-5-5---------------------------------

G|-------------------------------------------------------------------
D|-------------------------------------------------------------------
A|-7-7-7-7----------------------------------------------------------- x1
E|----------7-7-7-7--9-9-9-9--5-5-5-5--------------------------------

G|-------------------------------------------------------------------
D|-------------------------------------------------------------------
A|-7-7-7-7----------------------------------------------------------- x1
E|----------7-7-7-7--5-5-5-5-5-5-5-5---------------------------------

G|-------------------------------------------------------------------
D|-------------------------------------------------------------------
A|-7-7-7-7-7-7-7-7--------------------------------------------------- x1
E|------------------7-7-7-7-7-7-7-7----------------------------------

G|-------------------------------------------------------------------
D|-------------------------------------------------------------------
A|-7~~~~-----------------7-7----------------------------------------- x1
E|--------7-7--9-9--5-5-------7-7--9-9--5-5-5------------------------

G|-------------------------------------------------------------------
D|-------------------------------------------------------------------
A|------------------------------------------------------------------- x1
E|-2~~~~--5~~--7~~--0~~~~~~~~--0-0-----------------------------------
Comments