Left Banke - Walk Away Renee Chords & Tabs

 

Walk Away Renee Chords & Tabs

Left Banke Chords & Tabs

Version: 1 Type: Bass Tab 0 ratings
1 star 2 stars 3 stars 4 stars 5 stars
comments

Walk Away Renee Bass Tab

Walk Away Renee
The Left Banke
Written by Michael Brown, Bob Calilli and Tony Sansone; released as a single 
with "I Haven't Got The Nerve" as the B-side, and on the album "Walk Away 
Renee/Pretty Ballerina".

Intro:
G|------- ------- ------- -------|------- ------- ------- -------|
D|-------------------------------|-------------------------------|
A|5-----------4------------------|------------------------7---7--|
E|------------------------7------|5-----------5------------------|



G|------- ------- ------- -------|
D|-------------------------------|
A|------------------------7---7--|
E|5-----------5------------------|


Verse:
G|------- ------- ------- -------|------- ------- ------- -------|
D|7-----------7---7-----------7--|6-----------6---6-----------6--|
A|-------------------------------|-------------------------------|
E|-------------------------------|-------------------------------|
          And     when I          see     the sign that


G|------- ------- ------- -------|------- ------- ------- -------|
D|5-----------5---5-----------5--|4-----------4---4-----------4--|
A|-------------------------------|-------------------------------|
E|-------------------------------|-------------------------------|
                  points one  way,


G|------- ------- ------- -------|------- ------- ------- -------|
D|3-----------3---3-----------3--|2-----------2---2-----------2--|
A|-------------------------------|-------------------------------|
E|-------------------------------|-------------------------------|
          The     lot     we      used    to  pass    by


G|------- ------- ------- -------|------- ------- ------- -------|
D|4------------------------------|-------------------------------|
A|--------7-------5-------4------|-------------------------------|
E|-------------------------------|7-------5---7-------5---7------|
                  every   day,

Refrain:
G|------- ------- ------- -------|------- ------- ------- -------|
D|7-----------7------------------|4-----------4------------------|
A|----------------7-------7------|----------------4-------4------|
E|-------------------------------|-------------------------------|
          Just    walk a  -   way,        Re- née,            you


G|------- ------- ------- -------|------- ------- ------- -------|
D|-------------------------------|7-----------7------------------|
A|5-----------5---5-------5------|----------------7-------7------|
E|-------------------------------|-------------------------------|
  won't   see me  follow      you     back    home,


G|------- ------- ------- -------|------- ------- ------- -------|
D|7-----------7------------------|4-----------4------------------|
A|----------------7-------7------|----------------4-------4------|
E|-------------------------------|-------------------------------|
          The     empty       side -  walks   on      my


G|------- ------- ------- -------|------- ------- ------- -------|
D|-------------------------------|-------------------------------|
A|5-----------5---5-----------5--|4-----------4---4-----------4--|
E|-------------------------------|-------------------------------|
  block   are     not the     same,


G|------- ------- ------- -------|------- ------- ------- -------|
D|-------------------------------|-------------------------------|
A|5-----------4------------------|------------------------7---7--|
E|------------------------7------|5-----------5------------------|
          You're  not to      blame.


G|------- ------- ------- -------|
D|-------------------------------|
A|------------------------7---7--|
E|5-----------5------------------|


Verse:
G|------- ------- ------- -------|------- ------- ------- -------|
D|7-----------7---7-----------7--|6-----------6---6-----------6--|
A|-------------------------------|-------------------------------|
E|-------------------------------|-------------------------------|
          From    deep in   -     side    the tears   that


G|------- ------- ------- -------|------- ------- ------- -------|
D|5-----------5---5-----------5--|4-----------4---4-----------4--|
A|-------------------------------|-------------------------------|
E|-------------------------------|-------------------------------|
          I       forced  to  cry,


G|------- ------- ------- -------|------- ------- ------- -------|
D|3-----------3---3-----------3--|2-----------2---2-----------2--|
A|-------------------------------|-------------------------------|
E|-------------------------------|-------------------------------|
          From    deep in  -  side        the pain    that


G|------- ------- ------- -------|------- ------- ------- -------|
D|4------------------------------|-------------------------------|
A|--------7-------5-------4------|-------------------------------|
E|-------------------------------|7-------5---7-------5---7------|
          I       chose   to  hide,

Refrain:
G|------- ------- ------- -------|------- ------- ------- -------|
D|7-----------7------------------|4-----------4------------------|
A|----------------7-------7------|----------------4-------4------|
E|-------------------------------|-------------------------------|
          Just    walk a  -   way,        Re- née,            you


G|------- ------- ------- -------|------- ------- ------- -------|
D|-------------------------------|7-----------7------------------|
A|5-----------5---5-------5------|----------------7-------7------|
E|-------------------------------|-------------------------------|
  won't   see me  follow      you     back    home,


G|------- ------- ------- -------|------- ------- ------- -------|
D|7-----------7------------------|4-----------4------------------|
A|----------------7-------7------|----------------4-------4------|
E|-------------------------------|-------------------------------|
          Now     as  the     rain    beats   down            up-

[ Tab from: http://www.guitartabs.cc/tabs/l/left_banke/walk_away_renee_btab.html ]
G|------- ------- ------- -------|------- ------- ------- -------|
D|-------------------------------|-------------------------------|
A|5-----------5---5-----------5--|4-----------4---4-----------4--|
E|-------------------------------|-------------------------------|
  on      my      weary       eyes,


G|------- ------- ------- -------|------- ------- ------- -------|
D|-------------------------------|-------------------------------|
A|5-----------4-----------2------|0-----------0------------------|
E|-------------------------------|-------------------------------|
          For     me  it      cries.

Bridge (solo):
G|------- ------- ------- -------|------- ------- ------- -------|
D|-------------------------------|-------------------------------|
A|9-----------9---9-----------9--|8-----------8---8-----------8--|
E|-------------------------------|-------------------------------|



G|------- ------- ------- -------|------- ------- ------- -------|
D|-------------------------------|-------------------------------|
A|7-----------7---7-----------7--|6-----------6---6-----------6--|
E|-------------------------------|-------------------------------|



G|------- ------- ------- -------|------- ------- ------- -------|
D|-------------------------------|-------------------------------|
A|5-----------5---5-----------5--|4-----------4---4-----------4--|
E|-------------------------------|-------------------------------|



G|------- ------- ------- -------|------- ------- ------- -------|
D|-------------------------------|-------------------------------|
A|5-----------5---5-----------5--|-------------------------------|
E|-------------------------------|7-------5---7-------5---7------|


Refrain:
G|------- ------- ------- -------|------- ------- ------- -------|
D|7-----------7------------------|4-----------4------------------|
A|----------------7-------7------|----------------4-------4------|
E|-------------------------------|-------------------------------|
          Just    walk a  -   way,        Re- née,            you


G|------- ------- ------- -------|------- ------- ------- -------|
D|-------------------------------|7-----------7------------------|
A|5-----------5---5-------5------|----------------7-------7------|
E|-------------------------------|-------------------------------|
  won't   see me  follow      you     back    home,


G|------- ------- ------- -------|------- ------- ------- -------|
D|7-----------7------------------|4-----------4------------------|
A|----------------7-------7------|----------------4-------4------|
E|-------------------------------|-------------------------------|
          Now     as  the     rain    beats   down            up-


G|------- ------- ------- -------|------- ------- ------- -------|
D|-------------------------------|-------------------------------|
A|5-----------5---5-----------5--|4-----------4---4-----------4--|
E|-------------------------------|-------------------------------|
  on      my      weary       eyes,


G|------- ------- ------- -------|------- ------- ------- -------|
D|-------------------------------|-------------------------------|
A|5-----------4------------------|------------------------7---7--|
E|------------------------7------|5-----------5------------------|
          For     me  it      cries.


G|------- ------- ------- -------|
D|-------------------------------|
A|------------------------7---7--|
E|5-----------5------------------|


Verse:
G|------- ------- ------- -------|------- ------- ------- -------|
D|7-----------7---7-----------7--|6-----------6---6-----------6--|
A|-------------------------------|-------------------------------|
E|-------------------------------|-------------------------------|
          Your    name and        mine    in  -   side a      heart


G|------- ------- ------- -------|------- ------- ------- -------|
D|5-----------5---5-----------5--|4-----------4---4-----------4--|
A|-------------------------------|-------------------------------|
E|-------------------------------|-------------------------------|
              up- on  a       wall


G|------- ------- ------- -------|------- ------- ------- -------|
D|3-----------3---3-----------3--|2-----------2---2-----------2--|
A|-------------------------------|-------------------------------|
E|-------------------------------|-------------------------------|
          Still   finds   a   way         to  haunt   me,


G|------- ------- ------- -------|------- ------- ------- -------|
D|4------------------------------|-------------------------------|
A|--------7-------5-------4------|-------------------------------|
E|-------------------------------|7-------5---7-------5---7------|
          though  they're     small.
                      so
Refrain:
G|------- ------- ------- -------|------- ------- ------- -------|
D|7-----------7------------------|4-----------4------------------|
A|----------------7-------7------|----------------4-------4------|
E|-------------------------------|-------------------------------|
          Just    walk a  -   way,        Re- née,            you


G|------- ------- ------- -------|------- ------- ------- -------|
D|-------------------------------|7-----------7------------------|
A|5-----------5---5-------5------|----------------7-------7------|
E|-------------------------------|-------------------------------|
  won't   see me  follow      you     back    home,


G|------- ------- ------- -------|------- ------- ------- -------|
D|7-----------7------------------|4-----------4------------------|
A|----------------7-------7------|----------------4-------4------|
E|-------------------------------|-------------------------------|
          The     empty       side -  walks   on      my


G|------- ------- ------- -------|------- ------- ------- -------|
D|-------------------------------|-------------------------------|
A|5-----------5---5-----------5--|4-----------4---4-----------4--|
E|-------------------------------|-------------------------------|
  block   are     not the     same,


G|------- ------- ------- -------|------- ------- ------- -------|
D|-------------------------------|-------------------------------|
A|5-----------4-----------2------|0------------------------------|
E|-------------------------------|-------------------------------|
          You're  not to      blame.

Please e-mail me for any corrections, or write a comment.
Comments