Lefay - The Boone He Gives Chords & Tabs

 

The Boone He Gives Chords & Tabs

Lefay Chords & Tabs

Version: 1 Type: Tab 0 ratings
1 star 2 stars 3 stars 4 stars 5 stars
comments

The Boone He Gives Tab

                       LEFAY - THE BOONE HE GIVES
                    From the Album THE SEVENTH SEAL
                       Version 1.0 - JANUARY 2001

Transcribed by: Haris Durakovic (foreverlorn@gmx.de)

For Questions, Comments, Newest Version, or Corrections contact me

Check Out Death Warp, With More Transcriptions On It:
 http://tiger.towson.edu/~dalvis1

..  - palm mute          /  - slide up to
 \  - slide down to      ~  - vibrato
 h  - hammer on          b  - bend
 p  - pull off            Suffixes for bend
                          ph - pinch harmonic
                           f - full bend    h - half bend
*  - see comment           r - release      t - tap bend
X  - percussion mute       ~ - vibrato bend
@  - slight palm mute     () - ghost note, sustained note

LEFAY - THE BOONE HE GIVES

Riff 1 (Rhythm Guitar)
|---------------------------------------------------//
|---------------------------------------------------//
|---2------5---------------------------2------------//
|---2------5-------5------5------2-----2------------//
|---0------3-------5------5------2-----0------------//
|------------------3------3------0------------------//

Riff 1 (Lead Guitar)					      
|------------------------------------------------------------//
|------------------------------------------------------------//
|------------------9-----------------------------------------//
|------10-9-10-10----10-10-12-9-9-12-9------9--------10-9-10-//
|-12------------------------------------10---10-12-----------//
|------------------------------------------------------------//

  1.                          2.
|-------------------|------------------------------------//
|-------------------|------------------------------------//
|-9-7/9/7-----------|-9-7/9/7------------9-7/9/7---------//
|-----------10-9-10-|-----------10-9-10-----------10-9-9-//
|-------------------|------------------------------------//
|-------------------|------------------------------------//

Riff 2 (Acoustic Guitar)
|---------------------------------------------------------------------------------------9-/-7---//
|----------------8-------------------------7----------------------8------------------7----------//
|-------------9----9--------------------9---9------------------9----9-------------7-----------7-//
|----------9----------9---------------9--------9------------9---------9---------9---------------//
|-5-/-7-7----------------7--5-/-7-7--------------7-5-/-7-7--------------7-----9-----------------//
|--------------------------------------------------------------------------7--------------------//
[ Tab from: http://www.guitartabs.cc/tabs/l/lefay/the_boone_he_gives_tab.html ]
 
Riff 3						        		1.				
|-----------------------------------------------------------|-----------------------------//
|-----------------------------------------------------------|-----------------------------//
|-7---7---------7-------10--------10------------------------|-----------------------------//
|-7---7---------7-------10--------10------------7---7-------|-7-------5---5---------5-----//
|-5---5---5-5---5---5---8---8-8---8---8---------7---7-------|-7-------5---5---------5-----//
|-----------------------------------------------5---5---5-5-|-5---5---3---3---3-3---3---3-//
           . .       .       . .       .                 . .       .           . .       .

 2.
|-----------------------------------------//
|--13---13---12---------------------------//
|-----------------------------------------//
|--10---10----9---------------------------//
|-----------------------------------------//
|-----------------------------------------//

Refrain
					      1. 2. 3.             4.
|-----------------------------------------|----------------------|----------//
|-----------------------------------------|----------------------|----------//
|-----------------------------------------|----------------------|----------//
|-----2---------2---------2---------2-----|--------------------5-|-2--8-7-5-//
|-----2---------2---------2---------2-----|-----------3-/-5------|-2--8-7-5-//
|-0---0---0-0---0---0-0---0---0-0---0---0-|-0---3----------------|-0--6-5-3-//
  .       . .       . .       . .       .

Riff 4
|---------------------------------------------------------//
|---------------------------------------------------------//
|---------------------------------------------------------//
|-4---4-------------4-------------4-------------4---7---7-//
|-4---4-------------4-------------4-------------4---7---7-//
|-2---2---2-0-2-0---2---2-0-2-0---2---2-0-2-0---2---5---5-//
           . . . .       . . . .       . . . .

Rhythm under solo
|----------------------------------------------------//
|----------------------------------------------------//
|-----2---------2---------2---------2----------------//
|-----2---------2---------2---------2--------------5-//
|-0---0---0-0---0---0-0---0---0-0---0---0-0-3-5------//
|----------------------------------------------------//
  .       . .       . .       . .       . .

Fill in

|-----------------//
|-----------------//
|-2---3---2-------//
|-2---3---2-----5-//
|-0---1---0-----5-//
|---------------3-//

Riff 5
|---------------------------------------------------------------------------------------------//
|---------------------------------------------------------------------------------------------//
|---------------------------------------------------------------------------------------------//
|--8---8---7---5---7---2-------------8---8---7---5---7----------8---8---7---5---7---2---------//
|--8---8---7---5---7---2---5---7-----8---8---7---5---7---7~-----8---8---7---5---7---2---5---7-//
|--6---6---5---3---5---0-------------6---6---5---3---5----------6---6---5---3---5---0---------//

|-------------------//
|-------------------//
|-------------------//
|-8---8---7---5---2-//
|-8---8---7---5---2-//
|-6---6---5---3---0-//

Riff 6

|---------------------------------------------//
|---------------------------------------------//
|---------------------------------------------//
|------5----------5----------5----------5-----//
|------7----------7----------7----------7-----//
|--0-------0-0-------0-0-------0-0------------//
   .       . .       . .       . .


Riff 1:		2x
Riff 2:		4x
Riff 1:		2x
Riff 3:		2x
Refrain:	      4x
Riff 2:		2x
Riff 1:		2x
Riff 3:		2x
Refrain:	      4x
Riff 4:		2x
Rhythm:		4x
Fill in:	      1x
Riff 5:		1x
Riff 6:		4x

Check Out Death Warp, With More Transcriptions On It:
 http://tiger.towson.edu/~dalvis1
Comments