Lee Tommy - Hold Me Down Chords & Tabs

 

Hold Me Down Chords & Tabs

Lee Tommy Chords & Tabs

Version: 4 Type: Tab 0 ratings
1 star 2 stars 3 stars 4 stars 5 stars
comments

Hold Me Down Tab

   
Additional Info: No one has tabbed this song and 
This tabbed for just your regular 6 string electric guitar. 
But, Tommy Lee plays a custom guitar that he had designed for 
him specialy, this guitar only has 5 strings and some are thicker 
bass strings. how ever this is not a bass guitar that Tommy plays 
but i have tabbed this song using a regular guitar and it sounds 
really good. there are 2 guitars used for this song. 

~ = Let Notes Ring
^ = Up Stroke
v = Down Stroke
[ ] = Finger Muted
< > = Vibrate String
p = Pull Off

Tuning:      
E, A, D, G, B, E, 
Both Guitars

----------------------------------------------------------(Intro)

  (Intro)  (Guitar 1) {Clean/Slight Reverb}  -00:00-
e|-------------------------------------------------------------|
B|--6-6-6------------------6~~---------------------------------|
G|--6-6-6--6-6-6-\-4-4-4-/-6~~---------------------------------|
D|--6-6-6--6-6-6-\-4-4-4-/-4~~---------------------------------|
A|--4-4-4--4-4-4-\-2-2-2-/-4~~---------------------------------|
E|---------4-4-4-\-2-2-2---------------------------------------|
    ^ v ^  ^ v ^   ^ v ^   v

  (Intro) (Guitar 2)  {Clean/Slight Reverb} 
e|-------------------------------------------------------------|
B|-------------------------------------------------------------|
G|--6-4-----6-4------4-6---------------------------------------|
D|------4-------4--4-------------------------------------------|
A|-------------------------------------------------------------|
E|-------------------------------------------------------------|
[Guitar 2 plays this in between each set of 3 strums.It is 
played very quickly, & the last part is dubbed over the last strum] 

---------------------------------------------------------(Verse)


  (Verse)  (Guitar 1) {Clean/Slight Reverb} -00:15-
e|-------------------------------------------------------------|
B|--6-6-6------------------6-6~-6-6-6----------------6-6~------|
G|--6-6-6--6-6-6-\-4-4-4-/-6-6~-6-6-6--6-6-6-\-4-4-4-6-6~------|
D|--6-6-6--6-6-6-\-4-4-4-/-6-6~-6-6-6--6-6-6-\-4-4-4-6-6~------|
A|--4-4-4--4-4-4-\-2-2-2-/-4-4~-4-4-4--4-4-4-\-2-2-2-4-4~------|
E|---------4-4-4-\-2-2-2---------------4-4-4-\-2-2-2-----------|
    v ^ v  v ^ v   v ^ v   v ^  v ^ v  v ^ v   v ^ v v ^ 

  (Verse) (Guitar 2)  {Clean/Slight Reverb} 
e|-------------------------------------------------------------|
B|-------------------------------------------------------------|
G|--6-4-----6-4------4-6--6-4----6-4------4--6-----------------|
D|------4-------4--4----------4------4--4----------------------|
A|-------------------------------------------------------------|
E|-------------------------------------------------------------|
[Guitar 2 plays this in between each set of 3 strums.It is 
played very quickly, & the last part is dubbed over the last strum] 

---------------------------------------------------------(Chorus)

 (Chorus) (Guitar 1) {Heavy Distortion}     -00:38-
e|-------------------------------------------------------------|
B|-------------------------------------------------------------|
G|-------------------------------------6-6-6-6-6-6-4-4-4-4-4-4-|
D|[7][7]-7-7-7-7-7-7-7-7-7-7-7-7-7-7-7-6-6-6-6-6-6-4-4-4-4-4-4-|
A|[7][7]-7-7-7-7-7-7-7-7-7-7-7-7-7-7-7-4-4-4-4-4-4-2-2-2-2-2-2-|
E|[5][5]-5-5-5-5-5-5-5-5-5-7-7-7-7-7-7-4-4-4-4-4-4-2-2-2-2-2-2-|
   v  ^  v v v ^ v v v ^ v v v ^ v v v ^ v v v ^ v v v ^ v v v
  [There Should Be atleast 10 Srums Of Each Chord]      
[ Tab from: http://www.guitartabs.cc/tabs/l/lee_tommy/hold_me_down_tab_ver_4.html ]
  (Chorus) (Guitar 2) {Heavy Distortion}
e|------------------------------------------------------------|
B|------------------------------------------------------------|
G|------------------------------------------------------------|
D|-6-6-6-6-6-6-6-6-7-7-7-7-7-7-7-4-4-4-4-4-4-4-2-2-2-2-2-2-2--|
A|-6-6-6-6-6-6-6-6-7-7-7-7-7-7-7-4-4-4-4-4-4-4-2-2-2-2-2-2-2--|
E|-6-6-6-6-6-6-6-6-7-7-7-7-7-7-7-4-4-4-4-4-4-4-2-2-2-2-2-2-2--|
   v v v ^ v v v ^ v v v ^ v v v ^ v v v ^ v v v ^ v v v ^ v  

----------------------------------------------------------(Verse)

(Verse)  (Guitar 1) {Clean/Slight Reverb} -01:05-
e|-------------------------------------------------------------|
B|--6-6-6------------------6-6~-6-6-6----------------6-6~------|
G|--6-6-6--6-6-6-\-4-4-4-/-6-6~-6-6-6--6-6-6-\-4-4-4-6-6~------|
D|--6-6-6--6-6-6-\-4-4-4-/-6-6~-6-6-6--6-6-6-\-4-4-4-6-6~------|
A|--4-4-4--4-4-4-\-2-2-2-/-4-4~-4-4-4--4-4-4-\-2-2-2-4-4~------|
E|---------4-4-4-\-2-2-2---------------4-4-4-\-2-2-2-----------|
    v ^ v  v ^ v   v ^ v   v ^  v ^ v  v ^ v   v ^ v v ^ 

  (Verse) (Guitar 2)  {Clean/Slight Reverb} 
e|-------------------------------------------------------------|
B|-------------------------------------------------------------|
G|--6-4-----6-4------4-6--6-4----6-4------4--6-----------------|
D|------4-------4--4----------4------4--4----------------------|
A|-------------------------------------------------------------|
E|-------------------------------------------------------------|
[Guitar 2 plays this in between each set of 3 strums.It is 
played very quickly, & the last part is dubbed over the last strum] 
                                             -01:06-
(Verse/Solo) (Guitar 3)  {Heavy Distortion With Flangler Effects}
e|------------------------------------------------------------|
B|-5-3-p-0~~--3-5---------5-3-p-0~~---------------------------|
G|----------------5-p-0~--------------------------------------|
D|------------------------------------------------------------|
A|------------------------------------------------------------|
E|------------------------------------------------------------|
 [After The Chorus This Is Played While Regular Verses Is Played]
 [Reverb]                             -Solo Ends At 01:18- 

---------------------------------------------------------(Chorus)

 (Chorus) (Guitar 1) {Heavy Distortion}     -01:43-     
e|-------------------------------------------------------------|
B|-------------------------------------------------------------|
G|-------------------------------------6-6-6-6-6-6-4-4-4-4-4-4-|
D|[7][7]-7-7-7-7-7-7-7-7-7-7-7-7-7-7-7-6-6-6-6-6-6-4-4-4-4-4-4-|
A|[7][7]-7-7-7-7-7-7-7-7-7-7-7-7-7-7-7-4-4-4-4-4-4-2-2-2-2-2-2-|
E|[5][5]-5-5-5-5-5-5-5-5-5-7-7-7-7-7-7-4-4-4-4-4-4-2-2-2-2-2-2-|
   v  ^  v v v ^ v v v ^ v v v ^ v v v ^ v v v ^ v v v ^ v v v
  [There Should Be atleast 10 Srums Of Each Chord]      

  (Chorus) (Guitar 2) {Heavy Distortion}
e|------------------------------------------------------------|
B|------------------------------------------------------------|
G|------------------------------------------------------------|
D|-6-6-6-6-6-6-6-6-7-7-7-7-7-7-7-4-4-4-4-4-4-4-2-2-2-2-2-2-2--|
A|-6-6-6-6-6-6-6-6-7-7-7-7-7-7-7-4-4-4-4-4-4-4-2-2-2-2-2-2-2--|
E|-6-6-6-6-6-6-6-6-7-7-7-7-7-7-7-4-4-4-4-4-4-4-2-2-2-2-2-2-2--|
   v v v ^ v v v ^ v v v ^ v v v ^ v v v ^ v v v ^ v v v ^ v  

  (Solo During Chorus) (Guitar 3) {Heavy Distortion} -02:09-
e|--------------------------------------7---7---7---7---7---7-|
B|----~~------5---5---5---5---5---5--5|
G|------------------------------------------------------------|
D|------------------------------------------------------------|
A|------------------------------------------------------------|
E|------------------------------------------------------------|
  
  (Solo During Chorus) (Guitar 3) {Heavy Distortion} -02:47-
e|--5-0~----7---7---7---7---7---7---7---7---7~~~--------------|
B|--------5---5---5---5---5---5---5---5---5-------------------|
G|------------------------------------------------------------|
D|------------------------------------------------------------|
A|------------------------------------------------------------|
E|------------------------------------------------------------|
Comments