Lee Tommy - Hold Me Down Chords & Tabs

 

Hold Me Down Chords & Tabs

Lee Tommy Chords & Tabs

Version: 2 Type: Tab 0 ratings
1 star 2 stars 3 stars 4 stars 5 stars
comments

Hold Me Down Tab

Tommy Lee - Hold me Down
tune down 1/2 step and drop d.
easy song. here is the stuff. no solos on here.


INTRO TAB:

E------------------------------------------
B---------------------------------8--------
G----9--7--5---0---9--7--5---7----7--------
D----7--7--7-------7--7--7--------5--------
A----0--0--0-------0--0--0--------5--------
D------------------------------------------



HEAVY CHORUS CHORDS
[ Tab from: http://www.guitartabs.cc/tabs/l/lee_tommy/hold_me_down_tab_ver_2.html ]
E-------------------------------------------
B--------5--5--3-------------------------------
G--2-----2--2--2-------------------------------
D--0-----------------------------------------
A--0-----------------------------------------
D--0----------------------------------------



E-------------------------------------------
B-------------------------------------------
G--2------5------------2-----5--------------
D--0------3------8-----0-----3----5---------
A--0------3------8-----0-----3----5---------
D--0------3------8-----0-----3----5---------

listen for rhythms, here are the chords.

jaimeobradovich
jaimeo@cox.net
Comments