Lee Tommy - Hold Me Down Chords & Tabs

 

Hold Me Down Chords & Tabs

Lee Tommy Chords & Tabs

Version: 1 Type: Tab 0 ratings
1 star 2 stars 3 stars 4 stars 5 stars
comments

Hold Me Down Tab

"Hold me down" by: Tommy Lee
Tabbed by: Rob Marston (rob@leftatom.com)

This may not be 100% correct but it sounds alright to me. Have fun!



Intro:

e-|-----------------------------------------|
B-|-----------------------------------------|
G-|---8-8-6-----------------8-8-6-----11~---| 
D-|---8-----6---11-11-9-----8-----9---11~---| 
A-|---6---------11------9---6----------9~---|
E-|--------------9--------------------------|

Verse: 

e-|------------------------------------------------------------|
B-|------------------------------------------------------------|
G-|---8-8-6-----------------8-8-6-----11~---11-11---11-11-11---| 
D-|---8-----6---11-11-9-----8-----9---11~---11-11---11-11-11---| 
A-|---6---------11------9---6----------9~----9--9----9--9--9---|
E-|--------------9---------------------------------------------|

Bridge: (Guitar 2 plays this over the chorus with no singing)
[ Tab from: http://www.guitartabs.cc/tabs/l/lee_tommy/hold_me_down_tab.html ]
e-|-------------------------------|
B-|---/9--------------------------|
G-|------6~---6h8-10~-------------|
D-|---------------------11-6-4~---|
A-|-------------------------------|
E-|-------------------------------|

Chorus: 

              |-------Repeat-these-chords---------|
e-|-----------|-----------------|-----------------|
B-|-----------|-----------------|-----------------|
G-|---X-X-X---|---6-------------|---4-------------|
D-|---X-X-X---|---6---(strum)---|---4---(strum)---| 
A-|---X-X-X---|---4-------------|---2-------------|
E-|-----------|-----------------|-----------------|
              |---listen-to-the-song-for-rhythm---|



Solo: (With electric-organ sounding effect, played over chorus)

e-|------11-9~-----9-9-----9-9-----9~---|
B-|---/6-------6-6-----6-6-----6-6------|
G-|-------------------------------------| Repeat 
D-|-------------------------------------|
A-|-------------------------------------|
E-|-------------------------------------|
Comments