Lee Michaels - Do You Know What I Mean Chords & Tabs

 

Do You Know What I Mean Chords & Tabs

Lee Michaels Chords & Tabs

Version: 1 Type: Chords 0 ratings
1 star 2 stars 3 stars 4 stars 5 stars
comments

Do You Know What I Mean Chords

   
----------------------------------------------------------------------------
             Do You Know What I Mean - Lee Michaels   
----------------------------------------------------------------------------
Tabbed by: Bobbygee
email    : ellisdtripp69@yahoo.com

Tuning   : Standard
Intro    : piano arranged for guitar.

E|------X--X-----X--X--X--X----------X--X-----X--X--X--------------------|
B|------5--5-----5--7--5--5----------5--5-----5--7--5--------------------|
G|------5--5-----5--7--5--5----------5--5-----5--7--5--------------------|
D|------5--5-----5--7--5--5----------5--5-----5--7--5--------------------|
A|------3--3-----3--5--3--3----------3--3-----3--5--3--------------------|
E|------X--X-----X--X--X--X---3--5---X--X-----X--X--X--------------------|

     G                                        
Been fourteen days since I don't know when
F
  I just saw her with my best friend
                   C
Do you know what I mean?
Do you know, do you know what I mean?

G
I just saw her yesterday
F
  I just saw her asked her to stay
                   C
Do you know what I mean?
Lord!, do you know what I mean?

Her and Bobby were steppin' out
Her and bobby you know I found out
Do you know what I mean?
Do you know, know whatI mean?
[ Tab from: http://www.guitartabs.cc/tabs/l/lee_michaels/do_you_know_what_i_mean_crd.html ]
So I asked her if she still cared?
She didn't hear me she just stared
Do you know what I mean?
Lord!, do you know what I mean

"She said...."
A                           F
Lee you haven't loved me in nearly for a year
A                         F
You had the notion that I held back my tears
A                          F
And now you have, but it's really too late
A
Better find yourself another girl
D
Better find another girl
F             C
Better find a-nother place.              Oooh!

She just left me, yesterday
She just left me I've nothin' to say
Do you know what I mean?
Oh, do you know what I mean?

She's a dandy, yes indeed
She's a dandy but now she's free
Do you know what I mean?
Lord!, do you know what I mean?

Been fourteen days since I don't know when
I just saw her with my best friend
Do you know what I mean?
Lord, do you know what I mean?    C   D D  E E

I just saw her yesterday
I just saw her learned how to say
Do you know what I mean?
Lord!, do you know what I mean?

"Yeah!" ( keep talkin' now)       D D   F F G  A C
"Oooo..help.....me"               D D   F F G  A C
"Ooh"!                            C

Any comments or corrections to: ellisdtripp69@yahoo.com
"Kick out the jam motherf**kers!"
Comments