Lee Alvin - Im Going Home Woodstock Version Chords & Tabs

 

Im Going Home Woodstock Version Chords & Tabs

Lee Alvin Chords & Tabs

Version: 1 Type: Tab 0 ratings
1 star 2 stars 3 stars 4 stars 5 stars
comments

Im Going Home Woodstock Version Tab

                                I'm Going Home                                  


Submitted by: Travis (guitarfreak111)
email: tap5150tap@hotmail.com



                                                                    
E||-------------|--------------------------|-----------------------|
B||-------------|--------------------------|-----------------------|
G||-------5--7--|--7r-7h5-7-----5----7--5--|------------------5----|
D||----7--------|------------7-------------|--7----7h-5--7---------|
A||-------------|--------------------------|-----------------------|
E||-------------|--------------------------|-----------------------|


                                                       
--------5--------------------|------------------------|
--5--8-----8-----------------|------------------------|
--------------8h-7h-5--7-----|--7-----5h-7-5----------|
--------------------------7--|-----7-------------7----|
-----------------------------|------------------------|
-----------------------------|------------------------|


                                                            
------------8--------8--10b---|--10r-------10--8-----------|
-----8--10-----10-------------|-------------------10--8h10-|
--9---------------------------|----------------------------|
------------------------------|----------------------------|
------------------------------|----------------------------|
------------------------------|----------------------------|


                                                             
----8----------------------|-----------5--------------------|
----8--10------------------|-----5h-7-----8h-7h-5h----------|
-----------9/-8------7-----|--5--------------------7--5-----|
-----------------5h7----7--|-----------------------------7--|
---------------------------|--------------------------------|
---------------------------|--------------------------------|


                                                     
------------------------|-------------5-------------|
------------------------|----------5-----8----------|
--5-----5---------------|----5--7b----------7r---5--|
-----7------------5--7--|---------------------------|
-----------7------------|---------------------------|
------------------------|---------------------------|


                                                         
--------------5--------------|--------------------------|
-----------5-----------------|--------------------------|
--------5--7-----7r-7h-5h-7--|--5h6---------------------|
--7--7-----------------------|------7-------------5h-7--|
-----------------------------|---------7--7----7--------|
-----------------------------|--------------------------|


                                                     
------------------------|-------5-----5-------------|
--5---------------------|-------5--8-----8----------|
--5h-0--7--5---------5--|--7b---------------7r---5--|
------------------7-----|---------------------------|
------------------------|---------------------------|
------------------------|---------------------------|


                                                                    
---------------------8------|--11h-8--10h-8------------------------|
--------------8--10-----10--|----------------10--8-----------------|
--7-----5-----9-------------|-----------------------9/-7h-5-----5--|
-----7-----7----------------|--------------------------------7-----|
----------------------------|--------------------------------------|
----------------------------|--------------------------------------|


                                                     
-----------5---------5--8~-|------8--5--------5-----|
-----5h-8-----8~-----------|------------8h-5-----8b-|
--7------------------------|------------------------|
---------------------------|------------------------|
---------------------------|------------------------|
---------------------------|------------------------|


                                                       
----5-----------------------|----------------------8--|
-------8--------------------|----------------5/-8-----|
----------8h-7h-5--7--5--7--|--5b------------6/-9-----|
----------------------------|-------7--5--7-----------|
----------------------------|-------------------------|
----------------------------|-------------------------|


                                                                   
--10b-10--8----------------8--|--11h-8--10h-8---------------------|
--------------------8h-10-----|----------------10-----------------|
-------------9~---------------|--------------------9/-7--7/-5h-6--|
------------------------------|-----------------------------------|
------------------------------|-----------------------------------|
------------------------------|-----------------------------------|


                                                                               
-------------5-------------|-------------------------|-------------5-------5--|
---------------------------|-------------------------|----------5--5--8b------|
-------5--6-----7r---5h-7--|--5h6--------------------|-------7b---------------|
--7------------------------|------7------------------|------------------------|
---------------------------|---------7--7~---x-------|------------------------|
---------------------------|--------------------3----|--5---------------------|


                                                                      
--------5-------------|------------5-------5--|--------5-------------|
-----5-----8~---------|---------5-----8b------|-----5-----8b---------|
--7b------------------|------7b---------------|--7b------------------|
----------------------|-----------------------|----------------------|
----------------------|-----------------------|----------------------|
----------------------|-----------------------|----------------------|


                                                                             
-------------5-------5--|--------5------------------|------------5-------5--|
----5-----5-----8b------|-----5-----10--10--10------|---------5-----8b------|
-------7b---------------|--7b-----------------------|------7b---------------|
------------------------|---------------------------|-----------------------|
------------------------|---------------------------|-----------------------|
------------------------|---------------------------|-----------------------|


                                                                     
--------5-------------|------------5---------|--------5-------------|
-----5-----8b---------|---------5-----8b-----|-----5-----8b---------|
--7b------------------|------7b--------------|--7b------------------|
----------------------|----------------------|----------------------|
----------------------|----------------------|----------------------|
----------------------|----------------------|----------------------|


                                                                           
------------5--------------|----------------------|------------5----------|
---------5-----------------|----------------------|---------5--------5----|
------7b-------7--7r-7h-5--|--6-------------------|------7b-------7b------|
---------------------------|-----7----------------|-----------------------|
---------------------------|--------7--7~---------|-----------------------|
---------------------------|----------------------|-----------------------|


                                                                             
-------------------------|------------5--------------|----------------------|
-------------------------|---------5-----------------|----------------------|
--7-----5--7--5b---------|------7b-------7r-7h-5-----|--7-----5-------------|
-----7-------------------|------------------------7--|-----7-----7~---------|
-------------------------|---------------------------|----------------------|
-------------------------|---------------------------|----------------------|


                                                                               
------------5-----------|--5---------------------|-------------5--------------|
---------5-----8h-5--8--|-----8------------------|----------5-----8-----------|
------7b----------------|--------7r---5b---------|--5----7b----------7h-5-----|
------------------------|------------------------|-------------------------7--|
------------------------|------------------------|----------------------------|
------------------------|------------------------|----------------------------|


                                                                           
----------------------|------------11--10--8------|--8--------------------|
----------------------|-----------------------10--|-----10~---------------|
--7----5-----5~-------|---------------------------|-----------------------|
----------7-----------|---------------------------|-----------------------|
----------------------|---------------------------|-----------------------|
----------------------|---------------------------|-----------------------|


                                                                              
------------5--------------|----------------------|--------------------------|
---------5-----------------|----------------------|--------------------------|
------7b-------7r-7h-5-----|--5-------------------|--------------------------|
------------------------7--|-----7----------------|--------------------------|
---------------------------|--------7--7~---------|--7--7--9--9--7--7--9--9--|
---------------------------|----------------------|--5--5--5--5--5--5--5--5--|


                                                                                
--------------------------|--------------------------|-------------------------|
--------------------------|--------------------------|-------------------------|
--------------------------|--------------------------|-------------------------|
--------------------------|--------------------------|-------------------------|
--7--7--9--9--7--7--9--9--|--7--7--9--9--7--7--9--9--|----7--9--9--7--7--9--9--|
--5--5--5--5--5--5--5--5--|--5--5--5--5--5--5--5--5--|----5--5--5--5--5--5--5--|


                                                      
--------------------------|--------------------------|
--------------------------|--------------------------|
--------------------------|--------------------------|
--7--7--9--9--7--7--9--9--|--7--7--9--9--7--7--9--9--|
--5--5--5--5--5--5--5--5--|--5--5--5--5--5--5--5--5--|
--------------------------|--------------------------|


                                                      
-----------------------5--|--------------------------|
-----------------------5--|--------------------------|
--------------------------|--------------------------|
--------------------------|--------------------------|
--7--7--9--9--7--7--9-----|--7--7--9--9--7--7--9--9--|
--5--5--5--5--5--5--5-----|--5--5--5--5--5--5--5--5--|


                                                          
------------------------------|--------------------------|
------------------------------|--------------------------|
------------------------------|--------------------------|
--9--9--11--11--9--9--11--11--|--7--7--9--9--7--7--9--9--|
--7--7--7---7---7--7--7---7---|--5--5--5--5--5--5--5--5--|
------------------------------|--------------------------|


                                                                               
--------------5-----------|--5--------5------------|--------------------------|
--------------5-----------|--5--------5------------|--------------------------|
--------------------------|--------------x--x------|--------------------------|
--------------------------|--------------x--x------|--------------------------|
--7--7--9--9-----7--9--9--|-----7--9---------------|--7--7--9--9--7--7--9--9--|
--5--5--5--5-----5--5--5--|-----5--5---------------|--5--5--5--5--5--5--5--5--|


                                                                               
--------------------------|--------------5---------|--5--------5--5-----------|
--------------------------|--------------5---------|--5--------5--5-----------|
--------------------------|-----------------0------|--------------------------|
--------------------------|------------------------|--------------------------|
--7--7--9--9--7--7--9--9--|--7--7--9--9------------|-----7--9--------7--9--9--|
--5--5--5--5--5--5--5--5--|--5--5--5--5------------|-----5--5--------5--5--5--|


                                                      
--------5-----------5-----|--------5-----------------|
--------5-----------5-----|--------5-----------------|
--------7-----------7-----|--------7-----x--x--x--x--|
--7--7--9--9--7--7--9--9--|--7--7--9--9--x--x--x--x--|
--5--5--5--5--5--5--5--5--|--5--5--5--5--------------|
--------------------------|--------------------------|


                                                   
--------------5-----------|--5-------5------------|
--------------5-----------|--5-------5------------|
--------------------------|---------------x----x--|
--------------------------|---------------x----x--|
--7--7--9--9-----7--9--9--|-------9---------------|
--5--5--5--5-----5--5--5--|-------5---------------|


                                                          
------------------------------|--------------------------|
------------------------------|--------------------------|
------------------------------|--------------------------|
--9--9--11--11--9--9--11--11--|--7--7--9--9--7--7--9--9--|
--7--7--7---7---7--7--7---7---|--5--5--5--5--5--5--5--5--|
------------------------------|--------------------------|


                                                                            
--------------5----------|--5-----------------------|-----------5-------5--|
--------------5----------|--5-----------x--x--------|-----------5--8~------|
-------------------------|--------------x--x--x--x--|------7b--------------|
-------------------------|--------------------x--x--|----------------------|
--7--7--9--9-------9h-7--|-----7--9--9--------------|----------------------|
--5--5--5--5-------5-----|-----5--5--5--------------|----------------------|


                                                                         
--------5-------5----5--|------------5-------5--|--------5-------5------|
-----5-----8~--------5--|---------5-----8b------|--------5--8b---5------|
--7b--------------------|------7b---------------|--7--7b----------------|
------------------------|-----------------------|-----------------------|
------------------------|-----------------------|-----------------------|
------------------------|-----------------------|-----------------------|


                                                                      
------------5---------|------------5---------|------------5-------x--|
---------5-----8~-----|---------------8~-----|---------5-----8b------|
------7b--------------|------7--7b-----------|------7b---------------|
----------------------|----------------------|-----------------------|
----------------------|----------------------|-----------------------|
----------------------|----------------------|-----------------------|


                                                                      
--------5-------------|------------5-------x--|--------5-------------|
-----5-----8b---------|---------5-----8b------|-----5-----8b---------|
--7b------------------|------7----------------|--7b------------------|
----------------------|-----------------------|----------------------|
----------------------|-----------------------|----------------------|
----------------------|-----------------------|----------------------|


                                                             
-------------------------------|----------------------5--x--|
----8--8--8--8--8--8--8--7--5--|----------------5h-8--------|
----9--9--9--9--9--9--9--7--5h-|--6-------5--7--------------|
-------------------------------|-----7----------------------|
-------------------------------|----------------------------|
-------------------------------|----------------------------|


                                                         
------10r---10h-8------8------|-------------------------|
-------------------10-----10--|----8--------------------|
------------------------------|-------9--8/-7-----7-----|
------------------------------|----------------0-----x--|
------------------------------|-------------------------|
------------------------------|-------------------------|


                                                         
-----------5-----------------|-----------------------8--|
-----5h-7-----8h-7--7--------|----------5---------8-----|
--5--------------------5-----|--7----------7----9-------|
--------------------------7--|-----7----------7---------|
-----------------------------|--------------------------|
-----------------------------|--------------------------|


                                             
--11--8--10--8------8--11--8--10--8------8--|
----------------10-------------------10-----|
--------------------------------------------|
--------------------------------------------|
--------------------------------------------|
--------------------------------------------|


                                                                       
--11--8--10--8------8-----------------|-----------5-------------------|
----------------10--------------------|--7h-5--8-----8h-7--5----------|
-----------------------5--7h-5-----5--|-----------------------7--5b---|
--------------------------------7-----|-------------------------------|
--------------------------------------|-------------------------------|
--------------------------------------|-------------------------------|

[ Tab from: http://www.guitartabs.cc/tabs/l/lee_alvin/im_going_home_woodstock_version_tab.html ]
                                                                           
---------------------5--|-----------5--8----8b-|------8--5----------------|
---------------------5--|--8b----------7-------|------------8-------------|
----------------5-------|----------------------|---------------7r---5h-7--|
--7----7--5--7----------|----------------------|--------------------------|
------------------------|----------------------|--------------------------|
------------------------|----------------------|--------------------------|


                                                        
------------------------5-----|------------------------|
------------------5h-7-----8b-|------8--5----8h-10h-8--|
--5h6----------6--------------|------------------------|
------7--7--7-----------------|------------------------|
------------------------------|------------------------|
------------------------------|------------------------|


                                             
--11--8--10h-8---------11--8--10--8------8--|
----------------10h-8----------------10-----|
--------------------------------------------|
--------------------------------------------|
--------------------------------------------|
--------------------------------------------|


                                             
--11--8--10--8------8--11--8--10--8------8--|
----------------10-------------------10-----|
--------------------------------------------|
--------------------------------------------|
--------------------------------------------|
--------------------------------------------|


                                             
--11--8--10--8---------11--8--10--8------8--|
----------------10h-8----------------10-----|
--------------------------------------------|
--------------------------------------------|
--------------------------------------------|
--------------------------------------------|


                                             
--11--8--10--8------8--11--8--10--8---------|
----------------10-------------------10h-8--|
--------------------------------------------|
--------------------------------------------|
--------------------------------------------|
--------------------------------------------|


                                             
--11--8--10--8------8--11--8--10--8------8--|
----------------10-------------------10-----|
--------------------------------------------|
--------------------------------------------|
--------------------------------------------|
--------------------------------------------|


                                             
--11--8--10--8------8--11--8--10--8------8--|
----------------10-------------------10-----|
--------------------------------------------|
--------------------------------------------|
--------------------------------------------|
--------------------------------------------|


                                             
--11--8--10--8---------11--8--10--8------8--|
----------------10h-8----------------10-----|
--------------------------------------------|
--------------------------------------------|
--------------------------------------------|
--------------------------------------------|


                                             
--11--8--10--8------8--11--8--10--8------8--|
----------------10-------------------10-----|
--------------------------------------------|
--------------------------------------------|
--------------------------------------------|
--------------------------------------------|


                                                                  
--11--8--10--8----------------------|----------------------------|
------------------------------------|--------8--10--8------------|
------------------9/-5--7--5-----5--|--7/-9----------------5--6--|
------------------------------7-----|----------------------------|
------------------------------------|----------------------------|
------------------------------------|----------------------------|


                                                             
--------------5--------------|------------------------------|
-----------------8h-7h-5-----|--------------------8--10--8--|
--------5--7b-------------7--|--5h-6--------7/-9------------|
--7--7-----------------------|--------7---------------------|
-----------------------------|-----------7------------------|
-----------------------------|------------------------------|


                                                           
------------------8----|--10b-----8--10--8h10h8----8------|
--10b---10~-------8----|------10----------------10----10~-|
-----------------------|----------------------------------|
-----------------------|----------------------------------|
-----------------------|----------------------------------|
-----------------------|----------------------------------|


                                                      
-----------------------|-----------5-----------------|
------8----------------|-----5h-8----8/10----10------|
---------9--8----7--x--|--5--------------------------|
-----------------------|-----------------------------|
-----------------------|-----------------------------|
-----------------------|-----------------------------|


                                                                     
-----------5-----------5-----------|--5-----------5-----------5-----|
-----5h-7--------5h-7--------5h-7--|--------5h-7--------5h-7--------|
--5-----------5-----------5--------|-----5-----------5-----------5--|
-----------------------------------|--------------------------------|
-----------------------------------|--------------------------------|
-----------------------------------|--------------------------------|


                                                                   
-----5-----------5-----------5--|-----------5-----------5---------|
--7--------5h-7-----------7-----|--------7-----------7----8/10~---|
--------5-----------5h-0--------|--5h-0--------5h-0---------------|
--------------------------------|---------------------------------|
--------------------------------|---------------------------------|
--------------------------------|---------------------------------|


                                                           
------------10------8--10--|--8h10h8----------------------|
------8---------10---------|---------10-------------------|
---------9-----------------|---------------9/-8-----7--5h-|
---------------------------|---------------------7--------|
---------------------------|------------------------------|
---------------------------|------------------------------|


                                                                              
-----------------5----------|----------------x------|--20r-----------17------|
--------4/-5h-7-----8/-7----|--5-------------x------|--------------------19b-|
--6-----5/-6----------------|--6--------------------|------------------------|
-----7----------------------|-----7-----------------|------------------------|
----------------------------|--------7--7~----------|------------------------|
----------------------------|-----------------------|------------------------|


                                                          
--17----------17--------17--|--------17--------17--------|
------20b---------20b-------|--20b-------20b-------20b---|
----------------------------|----------------------------|
----------------------------|----------------------------|
----------------------------|----------------------------|
----------------------------|----------------------------|


                                     
--17--------17------17--17--17--17--|
------20b-------20------------------|
------------------------------------|
------------------------------------|
------------------------------------|
------------------------------------|


                                                   
--------------------------------------------------|
--17--18--19--17--18--19--17--18--19--17--18--19--|
--------------------------------------------------|
--------------------------------------------------|
--------------------------------------------------|
--------------------------------------------------|


                                                                        
--20--19--17----------17------17--20r-|------20h-17------17------------|
--------------19----------20----------|--------------20----------------|
------------------19------------------|----------------------17--------|
--------------------------------------|----------------------------19--|
--------------------------------------|--------------------------------|
--------------------------------------|--------------------------------|


                                                        
----------------------------|--------------------------|
----19----17--17--19b---19b-|----19b---19b---19b---19r-|
----19------------19b-------|----19b---19b---19b---19r-|
----------------------------|--------------------------|
----------------------------|--------------------------|
----------------------------|--------------------------|


                                                      
------------------------|--5-------------------------|
---------------------8--|-----x----------7-----------|
------7--5-----5--7b----|--------7r7h5---7--5h-6-----|
------------7-----------|--------------7----------7--|
------------------------|----------------------------|
------------------------|----------------------------|


                                                       
----------------5-------5--|--------------------------|
--x---------------5-----5--|--8--8--8--8--8--8--8--8--|
--5--x--------------7b-----|--9--9--9--9--9--9--9--9--|
---------------------------|--------------------------|
--------7--7---------------|--------------------------|
---------------------------|--------------------------|


                                                                                
--------------------------|--------------------------|-------------------------|
--8--8--8--8--8--x--------|--8--8--8--8--8--8--8--8--|--8--8--8--8-------------|
--9--9--9--9--9--x--6-----|--9--9--9--9--9--9--9--9--|--9--9--9--9--8--5-------|
-----------------------7--|--------------------------|--------------------7----|
--------------------------|--------------------------|-------------------------|
--------------------------|--------------------------|-------------------------|


                                                                 
----------------------------------|-----------------------------|
--10--10--10--10--10--10--10--10--|--10--10--10--10/-8----------|
--11--11--11--11--11--11--11--11--|--11--11--11--11/-9----7--5h-|
----------------------------------|-----------------------------|
----------------------------------|-----------------------------|
----------------------------------|-----------------------------|


                                                               
-----------5-------------------|---------------8--10b---10b---|
-----x--x-------8h-7--------5--|--------8/-10-----------------|
--6-------------------5--7--5h-|--6---------------------------|
-------------------------------|-----7------------------------|
-------------------------------|------------------------------|
-------------------------------|------------------------------|


                                                                     
--10r---------------------8--|--11--8--10--8------------------------|
--------10---------8h-10-----|----------------10h-8-----------------|
------------9----------------|-----------------------9/-7--7--5--6--|
-----------------------------|--------------------------------------|
-----------------------------|--------------------------------------|
-----------------------------|--------------------------------------|


                                                                             
-------------5----------|------------------------|--------------------------|
------------------------|------------------------|--------------------------|
--------5-------7r---5h-|--6-------------x----x--|--------------------------|
--7--7------------------|-----7--7--7----x----x--|--2--2--4--4--2--2--4--4--|
------------------------|------------------------|--0--0--0--0--0--0--0--0--|
------------------------|------------------------|--------------------------|


                                                      
--------------------------|--------------------------|
--------------------------|--------------------------|
--------------------------|--------------------------|
--2--2--4--4--2--2--4--4--|--2--2--4--4--2--2--4--4--|
--0--0--0--0--0--0--0--0--|--0--0--0--0--0--0--0--0--|
--------------------------|--------------------------|


                                                      
--------------------------|--------------------------|
--------------------------|--------------------------|
--------------------------|--2--2--4--4--2--2--4--4--|
--2--2--4--4--2--2--4--4--|--0--0--0--0--0--0--0--0--|
--0--0--0--0--0--0--0--0--|--------------------------|
--------------------------|--------------------------|


                                                      
--------------------------|--------------------------|
--------------------------|--------------------------|
--2--2--4--4--2--2--4--4--|--------------------------|
--0--0--0--0--0--0--0--0--|--2--2--4--4--2--2--4--4--|
--------------------------|--0--0--0--0--0--0--0--0--|
--------------------------|--------------------------|


                                                      
--------------------------|--------------------------|
--------------------------|--------------------------|
--------------------------|--------------------------|
--2--2--4--4--2--2--4--4--|--------------------------|
--0--0--0--0--0--0--0--0--|--2--2--4--4--2--2--4--4--|
--------------------------|--0--0--0--0--0--0--0--0--|


                                                      
--------------------------|--------------------------|
--------------------------|--------------------------|
--2--2--4--4--2--2--4--4--|--------------------------|
--0--0--0--0--0--0--0--0--|--2--2--4--4--2--2--4--4--|
--------------------------|--0--0--0--0--0--0--0--0--|
--------------------------|--------------------------|


                                                      
--------------------------|--------------------------|
--------------------------|--------------------------|
--------------------------|--------------------------|
--------------------------|--2--2--4--4--2--2--4--4--|
--2--2--4--4--2--2--4--4--|--0--0--0--0--0--0--0--0--|
--0--0--0--0--0--0--0--0--|--------------------------|


                                                      
--------------------------|--------------------------|
--------------------------|--------------------------|
--------------------------|--------------------------|
--2--2--4--4--2--2--4--4--|--2--2--4--4--2--2--4--4--|
--0--0--0--0--0--0--0--0--|--0--0--0--0--0--0--0--0--|
--------------------------|--------------------------|


                                                      
--------------------------|--------------------------|
--------------------------|--------------------------|
--------------------------|--2--2--4--4--2--2--4--4--|
--2--2--4--4--2--2--4--4--|--0--0--0--0--0--0--0--0--|
--0--0--0--0--0--0--0--0--|--------------------------|
--------------------------|--------------------------|


                                                      
--------------------------|--------------------------|
--------------------------|--------------------------|
--2--2--4--4--2--2--4--4--|--------------------------|
--0--0--0--0--0--0--0--0--|--2--2--4--4--2--2--4--4--|
--------------------------|--0--0--0--0--0--0--0--0--|
--------------------------|--------------------------|


                                                      
--------------------------|--------------------------|
--------------------------|--------------------------|
--------------------------|--------------------------|
--2--2--4--4--2--2--4--4--|--------------------------|
--0--0--0--0--0--0--0--0--|--2--2--4--4--2--2--4--4--|
--------------------------|--0--0--0--0--0--0--0--0--|


                                                      
--------------------------|--------------------------|
--------------------------|--------------------------|
--2--2--4--4--2--2--4--4--|--------------------------|
--0--0--0--0--0--0--0--0--|--2--2--4--4--2--2--4--4--|
--------------------------|--0--0--0--0--0--0--0--0--|
--------------------------|--------------------------|


                                                                             
--------------------------|----|----|----|----|----|----|----|----|----|----|
--------------------------|----|----|----|----|----|----|----|----|----|----|
--------------------------|----|----|----|----|----|----|----|----|----|----|
--------------------------|----|----|----|----|----|----|----|----|----|----|
--2--2--4--4--2--2--4--4--|----|----|----|----|----|----|----|----|----|----|
--0--0--0--0--0--0--0--0--|----|----|----|----|----|----|----|----|----|----|


                                                                                
----|----|----|----|----|----|----|----|----|----|----|----|----|----|----|----|
----|----|----|----|----|----|----|----|----|----|----|----|----|----|----|----|
----|----|----|----|----|----|----|----|----|----|----|----|----|----|----|----|
----|----|----|----|----|----|----|----|----|----|----|----|----|----|----|----|
----|----|----|----|----|----|----|----|----|----|----|----|----|----|----|----|
----|----|----|----|----|----|----|----|----|----|----|----|----|----|----|----|


                                                                                
----|----|----|----|----|----|----|----|----|----|----|----|----|----|----|----|
----|----|----|----|----|----|----|----|----|----|----|----|----|----|----|----|
----|----|----|----|----|----|----|----|----|----|----|----|----|----|----|----|
----|----|----|----|----|----|----|----|----|----|----|----|----|----|----|----|
----|----|----|----|----|----|----|----|----|----|----|----|----|----|----|----|
----|----|----|----|----|----|----|----|----|----|----|----|----|----|----|----|


                               
----|----|----|----|----|----||
----|----|----|----|----|----||
----|----|----|----|----|----||
----|----|----|----|----|----||
----|----|----|----|----|----||
----|----|----|----|----|----||


Comments