Led Zeppelin - You Shook Me Chords & Tabs

 

You Shook Me Chords & Tabs

Led Zeppelin Chords & Tabs

Version: 1 Type: Tab 0 ratings
1 star 2 stars 3 stars 4 stars 5 stars
comments

You Shook Me Tab

   
#----------------------------------PLEASE NOTE--------------------------------#
#This file is the author's own work and represents their interpretation of the#
#song. You may only use this file for private study, scholarship, or research.#
#-----------------------------------------------------------------------------#
#-- File created with Instab - http://www.pconline.com/~smcarey/instab.html --#
#-----------------------------------------------------------------------------#

Author/Artist: Led Zeppelin
Title: You Shook Me (Willie Dixon)
Album: Led Zeppelin I
Transcribed by: Chris L.
Email: jnplgrgrngo@comcast.net

Wow a great song. I thank Willie Dixon for writing this great
masterpiece. The first version was good just no solo, so
I tabbed it as best I could so here it is.
Here are my signs:
b=bend
r=release bend
pb=pre-bend
hb=hold bend
v=vibrato
/=slide up
\=slide down
Now to the song:

-----------------------------|------------------------------------------------
-17-17-15-17-15--12----------|-17-17-15-17-15-12----12------------------------
--------------------14-12----|-------------------14----14-12v-----------------
--------------------------14\|--------------------------------14--------------
-----------------------------|------------------------------------------------
-----------------------------|------------------------------------------------
 1                             2                                              

---------------------------------------------|-------------------|------------
---------------------------------------------|-------------------|------------
--------14----12v----------------------------|-------------------|------------
-----14----14-----14b16-14-12-14-14\---------|-------------------|------------
-/14-----------------------------14\--2-7-5-2|-2-2-4-2-2--2-7-5-2|------------
--------------------------------------0-5-3-0|-0-0-0-0-0--0-5-3-0|------------
 3                                             4                              

-------------------|--------|---------------------------------|---------------
-------------------|--------|---------------------------------|---------------
----------12-------|--------|---------------------12----------|---------------
----12-14----14-12\|--------|---------------12-14----14-12-14\|---------------
-14----------------|-2-7-5-2|-2-2-4-2-2--14-------------------|---------------
-------------------|-0-5-3-0|-0-0-0-0-0-----------------------|---------------
   5                 6       7                                                

--------------------------------------|---------------------------------------
--------------------------------------|-12-12----12-15-12---------------------
----------12--------------------------|-------14----------14-12\--------------
----12-14----14-12\-------------------|---------------------------------------
-14-----------------2-7-5-2--2-2-4-2-2|---------------------------------------
--------------------0-5-3-0--0-0-0-0-0|---------------------------------------
 8                                        9                                   

-12----12---------------------------------------------------------------------
----15----15-12----12---------------------------------------------------------
----------------14----14-12------------14----12v------------------------------
----------------------------14------14----14-----14b16-14-12-14--14\----------
--------------------------------/14------------------------------14\----------
------------------------------------------------------------------------------
 10                                                                           

-22b24-22-22b24-22-19----19---------------------------------------------------
----------------------22----22-19b20-----------22----20v----------------------
-------------------------------------21-----21----21-----21b23-21-19-21-------
----------------------------------------/21-----------------------------------
------------------------------------------------------------------------------
------------------------------------------------------------------------------
   repeat measures 4,5,6,7,8 and 9 then skip to:(up)                          

-16-17-18-19---------|-------------------|-------------------|----------------
---------------------|-------------------|-------------------|----------------
---------------------|-------------------|-------------------|----------------
---------------------|-------------------|-2-2-4-2-2--2-7-5-2|----------------
--------------2-7-5-2|-2-2-4-2-2--2-7-5-2|-0-0-0-0-0--0-5-3-0|----------------
--------------0-5-3-0|-0-0-0-0-0--0-5-3-0|-------------------|----------------
             solo time   x4                    x2                             

-------------------|-------7---7-----7-----7----------------------------------
-------------------|-------7-----7-----7-----7--------------------------------
-------------------|-------8-------8-----8-----8------------------------------
-------------------|-------7----------------------------2-4b6-4b6-2---2-2-----
-2-2-4-2-2--2-7-5-2|-------9-9-------------------7--3-4-------------4---------
-0-0-0-0-0--0-5-3-0|-5-6-7-7-7-------------------5----------------------------
   x2                                                                         

-----------------------------------|-------------------|----------------------
----9------10-------11----12\------|-------------------|----------------------
-----------------------------------|-------------------|----------------------
-/9---9-10----10-11----11----------|-------------------|-2-2-4-2-2-2-7-5-2----
------------------------------0-1-2|-2-2-4-2-2--2-7-5-2|-0-0-0-0-0-0-5-3-0----
-----------------------------------|-0-0-0-0-0--0-5-3-0|----------------------
                                      x4                 x2                   

-------------------|--------7--7-----7-----7----------------------------------
-------------------|--------7----7-----7-----7--------------------------------
-------------------|--------8------8-----8-----8------------------------------
-------------------|--------7---------------------------2-4b6-4b6-2---2-2-----
-2-2-4-2-2--2-7-5-2|--------9-9------------------7--3-4-------------4---------
-0-0-0-0-0--0-5-3-0|--5-6-7-7-7------------------5----------------------------
  x2                                                                          

-----------------------------|------------------------------------------------
----9-----8-----7------------|--------------------15b17-15--------------------
-----------------------------|-----12-14p12-14b16-----------------------------
-/9---9-8---8-7---7-/6-------|-/14--------------------------------------------
------------------------0-1-2|------------------------------------------------
-----------------------------|------------------------------------------------
                               guitar solo(up)                                
[ Tab from: http://www.guitartabs.cc/tabs/l/led_zeppelin/you_shook_me_tab.html ]
-------------------------|--------------------------------15b17-15-12pb15r12--
-------------------------|--------------------12b14-15b17---------------------
-14b16-14-13-14p13-------|-----12-14p12-14b16---------------------------------
--------------------14p12|-/14------------------------------------------------
-------------------------|----------------------------------------------------
-------------------------|----------------------------------------------------
                                                                              

----20b22-19-18-17------------------------------------19----------19----------
-17----------------20-19-17----17----19p17----17-19hb----r19-19hb----r19------
----------------------------18----18-------18---------------------------------
------------------------------------------------------------------------------
------------------------------------------------------------------------------
------------------------------------------------------------------------------
 fastpart(up)                                                                 

-------------------------------------------------------------20b22-19-18-17---
-19p17-19p17----19p17-19p17-19p17----19p17----19p17----17---------------------
-------------18-------------------18-------18-------18----18------------------
------------------------------------------------------------------------------
------------------------------------------------------------------------------
------------------------------------------------------------------------------
                                                                              

---------------------------------------19-------------------------------------
-20-19-17----19p17----17----17----19hb----r19-19b21-19-21-19-21-19-21---------
----------18-------18----18----18---------------------------------------------
------------------------------------------------------------------------------
------------------------------------------------------------------------------
------------------------------------------------------------------------------
                                                                              

------------------------|-----------------------------------------------------
-21----19----19----19---|-------17-20b22-20b22-20-17----17--------------------
----18----18----18----18|-16-18----------------------19----19-----------------
------------------------|-----------------------------------------------------
------------------------|-----------------------------------------------------
------------------------|-----------------------------------------------------
                                                                              

-------------------|----------------------------------------------------------
-------------------|----------------------------------------------------------
-19-18p17p16-18----|-----12-15b17-15p14p12h14-14b16r14p12---------------------
----------------19\|-/14------------------------------------------------------
-------------------|----------------------------------------------------------
-------------------|----------------------------------------------------------
                                                                              

-------------------------------------------------|----------------------------
-------------------15----------------------------|----------------------------
----12----12-14b16----14p12h14--12h14p12---------|----9----9----9-------------
-14----14--------------------------------14-12-14|-/9---9-8--8-7--7-/6--------
-------------------------------------------------|---------------------0-1-2--
-------------------------------------------------|----------------------------
                                                                              

-------------------|----------------------------|-----------------------------
-------------------|----------------------------|-----------------------------
-------------------|-----------12---------------|-----------------------------
-------------------|-----12-14----14-12\--------|-----------------------------
-2-2-4-2-2--2-7-3-2|--14-----------------2-7-5-2|-2-2-4-2-2--2-7-5-2----------
-0-0-0-0-0--0-5-3-0|---------------------0-5-3-0|-0-0-0-0-0--0-5-3-0----------
                                                                              

----------------------|-------------------------------------------------------
----------------------|-------------------------------------------------------
----------12----------|----------12-------------------------------------------
----12-14----14-12-14\|----12-14----14-12\------------------------------------
-14-------------------|-14-----------------2-7-5-2--2-2-4-2-2--2-7-5-2--------
----------------------|--------------------0-5-3-0--0-0-0-0-0--0-5-3-0--------
                                                                              

-----------------12-/17-15-/14-12|------|--12b14-12b14|-----|-12b14-12b14|--|-
-12-12----12-/15-----------------|------|-------------|-----|------------|--|-
-------14------------------------|------|-------------|-----|------------|--|-
---------------------------------|------|-------------|-----|------------|--|-
---------------------------------|------|-------------|-----|------------|--|-
---------------------------------|------|-------------|-----|------------|--|-
                                 sing(up)             sing               la!  

-12b14-12b14-12p10-12p10|---|-12b14-12b14-12p10-12p10|--|-15b17-12-12--|----|-
------------------------|---|------------------------|--|--------------|----|-
------------------------|---|------------------------|--|--------------|----|-
------------------------|---|------------------------|--|--------------|----|-
------------------------|---|------------------------|--|--------------|----|-
------------------------|---|------------------------|--|--------------|----|-
                        la!                          la!                la!   

-15b17r15b17r15b17r15-12-12|---------|---------|-------12-14v-14p12----12\----
---------------------------|-12------|---------|-12-14--------------14--------
---------------------------|-14bvvvvv|---------|------------------------------
---------------------------|---------|---------|------------------------------
---------------------------|---------|---------|------------------------------
---------------------------|---------|---------|------------------------------
                                     you shoo..!                              

------------------------------------------------------------------------------
------------------------------------------------------------------------------
-------------------------8-7vvvvvvvvvvvvvvvv----------------------------------
-------------------------7-6vvvvvvvvvvvvvvvv----------------------------------
-------------------------8-7vvvvvvvvvvvvvvvv----------------------------------
---------------------0--------------------------------------------------------
                                                                              

Comments