Led Zeppelin - Whole Lotta Love Chords & Tabs

 

Whole Lotta Love Chords & Tabs

Led Zeppelin Chords & Tabs

Version: 6 Type: Tab 0 ratings
1 star 2 stars 3 stars 4 stars 5 stars
comments

Whole Lotta Love Tab

Artist: Led Zeppelin
Song: Whole Lotta Love
Album: Led Zeppelin 2
Tabed By: Paul
E-mail: cr05@yosemite.net


Nobody has got this tab right!! So here's mine tell me if it's any good.

               intro repet twice.
E|----------------------------------------------|
B|----------------------------------------------|
G|----------9-----9-----9-----9-----9-----9\----|
D|---0---0--9-----9-----9-----9-----9-----9\----|
A|---5---5--7-----7-----7-----7-----7-----7\----|
E|-7---7------0-0---0-0---0-0---0-0---0-0-------|

      when he start's singing play this.
E|----------------------------------------------|
B|----------------------------------------------|
G|---------9-----9---9---------9-----9---9------|
D|---0---0-9-----9---9---0---0-9-----9---9------|
A|---5---5-7-----7---7---5---5-7-----7---7------|
E|-7---7-----0-0---0---7---7-----0-0---0--------|
[ Tab from: http://www.guitartabs.cc/tabs/l/led_zeppelin/whole_lotta_love_tab_ver_6.html ]
                         solo
E|--------12-----------------------------------------------|
B|-----12----15-12----------------------------3------------|
G|-b14-------------15p14p12-14-12-b14-----2/4---4\2-0-2p0--|
D|---------------------------------------------------------|
A|---------------------------------------------------------|
E|---------------------------------------------------------|


E|----------------------------12---------15----------------|
B|-------------------------12----b15-b15----b15-----17--b20|
G|-0-2p0--------------b14----------------------------------|
D|-------2p0-2p0-------------------------------------------|
A|---------------2-----------------------------------------|
E|-----------------0---------------------------------------|


E|--------------------b19-19-18-17-------------------------|
B|-------20p17-----17--------------20p17-20-17------17-19--|
G|-21p18---------------------------------------------------|
D|---------------------------------------------------------|
A|---------------------------------------------------------|
E|---------------------------------------------------------|


E|-------------19----------------|
B|-b19-b19-b19----17-------------|
G|-------------------------------|
D|-------------------------------|
A|-------------------------------|
E|-------------------------------|

After the solo it goes back to the intro riff. if there's any probloms E-mail me at 
cr05@yosemite.net hope you liked it!
Comments