Led Zeppelin - Whole Lotta Love Chords & Tabs

 

Whole Lotta Love Chords & Tabs

Led Zeppelin Chords & Tabs

Version: 5 Type: Tab 0 ratings
1 star 2 stars 3 stars 4 stars 5 stars
comments

Whole Lotta Love Tab

do this with distortion.
And lots of it too.
E-----------------------------------------------------------
B-----------------------------------------------------------
G--------------------9------9-------9-------9------9--------
D--------------------9------9-------9-------9------9--------
A--------5------5----7------7-------7-------7------7--------
E--5/7------7-----------0-0----0-0-----0-0-----0-0---0-0----

E---------------------------------------------------
B---------------------------------------------------
G-9-------9---9\------------------------------------
D-9-------9---9\------------------------------------
A-7-------7---7\-----5--------5---------------------
E----0-0---------5/7------7-------------------------
  HAVE FUN GUYZ!!!

[ Tab from: http://www.guitartabs.cc/tabs/l/led_zeppelin/whole_lotta_love_tab_ver_5.html ]
Comments