Led Zeppelin - What Is And What Should Never Be Chords & Tabs

 

What Is And What Should Never Be Chords & Tabs

Led Zeppelin Chords & Tabs

Version: 3 Type: Tab 0 ratings
1 star 2 stars 3 stars 4 stars 5 stars
comments

What Is And What Should Never Be Tab

   
-------------------------------------------------------------------------------
	     What is and What Should Never Be (solo)- Led Zeppelin
-----------------------------------------------------------------------------
This is done with a slide. i didnt bother with the timing
so you will have to listen to the song

Tuning:eadgbe

e|--------------------------------------------------------12-10-12-10--------
B|--------------------------------------7/9--7/9--7\2--12-----------12-12\10-
G|-----11--11/13--11/13--11\6~--6\4-4-6-7/9--7/9--7\2------------------------
D|9-11-----------------------------------------------------------------------
A|---------------------------------------------------------------------------
E|---------------------------------------------------------------------------

e|---------------14/16-12/14-12----------------------------------------------
B|10-10/14\12-12----------------12-10-------12/14\12-12------------14~----14-
G|------------------------------------12/14---------------------------14~----
D|---------------------------------------------------------7/14-14-----------
A|---------------------------------------------------------------------------
E|---------------------------------------------------------------------------
[ Tab from: http://www.guitartabs.cc/tabs/l/led_zeppelin/what_is_and_what_should_never_be_tab_ver_3.html ]
e|---------------------------------------------------------------------------
B|--------14~----14~--------14~---14~-14-14----------------------------------
G|-----------14~--------------14~--------------------------------------------
D|7/14-14-----------7/14-14---------------8--6-------------------------------
A|----------------------------------------9--7-------------------------------
E|---------------------------------------------------------------------------

e|---------------------------------------------------------------------------
B|--------14~----14~-------14~----14~-14-14--------------------16~----16~----
G|-----------14~--------------14~---------------------------------16~--------
D|7/14-14-----------7/14------------------8--6-----7/16-16-------------------
A|----------------------------------------9--7-------------------------------
E|---------------------------------------------------------------------------

e|--------------------------------------------------12-10-9------------------
B|--------16~----16~---------16----16-16-16-------------------14-12-14\12/14-
G|-----------16~---------------16--------------------------------------------
D|7/16-16----------7/16-16------------------8--6-----------------------------
A|------------------------------------------9--7-----------------------------
E|---------------------------------------------------------------------------

e|---------------------------------------------------------------------------
B|14\12\14-14-14-12/0--------------------------------------------------------
G|---------------------------------------------------------------------------
D|---------------------------------------------------------------------------
A|---------------------------------------------------------------------------
E|---------------------------------------------------------------------------


| /  slide up
| \  slide down
| h  hammer-on
| p  pull-off
| ~  vibrato
| +  harmonic
| x  Mute note
===============================================================================
Comments