Led Zeppelin - Travelling Riverside Blues Chords & Tabs

 

Travelling Riverside Blues Chords & Tabs

Led Zeppelin Chords & Tabs

Version: 2 Type: Bass Tab 0 ratings
1 star 2 stars 3 stars 4 stars 5 stars
comments

Travelling Riverside Blues Bass Tab

Travelling Riverside Blues - Led Zeppelin

 

  intro/beginning of second, third, fourth, and last verse                               
G|----------35-3-------------------------35-3-----------------------------35-3----------------|
D|----5--05-----5-03-2-0------02----5-05-----5-033-22-00------02----5--05-----5-03-2-0------02|
A|-----------------------3-302---------------------------3-302-------------------------3-302--|
E|3-33--------------------------3-33----------------------------3-33--------------------------|
[ Tab from: http://www.guitartabs.cc/tabs/l/led_zeppelin/travelling_riverside_blues_btab_ver_2.html ]
  verse                                                        "I know my baby if I see her in.."
G|--------------------------------------------------------------------5-553----------------------
D|----5---5-553-------5----------5-55---5-553------5-------5------5--5-5---53-----2-2-33-44--5-5-
A|-------5-5---532-------02-23-35------5-5---53-------2-235---3-33------------2-2-----------5----
E|3-33------------3-33-------------------------3-33--3-3-----------------------------------------

                                                          "if I see her in the dark" 
----------------------------------7-775------------------------------------------------------|
5---5-553-------5----------------7-7---75----------------5------5-5--555-53---------------53-|
---5-5---53-------02-23344-5-5-5----------3-3-3--------03--03-3-----5------5-0355-5-05-035--5|
------------3-3--------------------------5------012-023--------------------------------------|

I think the verse is different every time, but the one here will fit in for each one.
tabbed by Achilles (blue_sincere@hotmail.com)
Comments