Led Zeppelin - The Rover Chords & Tabs

 

The Rover Chords & Tabs

Led Zeppelin Chords & Tabs

Version: 2 Type: Tab 2 ratings
1 star 2 stars 3 stars 4 stars 5 stars
comments

The Rover Tab

The Rover - Led Zeppelin

Intro:
e---------------------------------------------------------------------------
b--------------------------------------------------------10--9----10--9-----
g-------9-------------------------------------------------9--9-----9--9-----
d-------9-------------------------------------------------9--9-----9--9-----
a-------7------5--5--7--7--5--7--5--5^7-------------------7--7-----7--7-----
E--------------3--3--5--5--3--5--3--0---------------------------------------

e---------------------------------------------------------------------------
b--------------------------------------------------------10--9----10--9-----
g-------9-------------------------------------------------9--9-----9--9-----
d-------9-------------------------------------------------9--9-----9--9--5--
a-------7------5--5--7--7--5--7--5--5^7-------------------7--7-----7--7----7
E--------------3--3--5--5--3--5--3--0---------------------------------------

Main riff:
e-----------------------------
b-----------------------------
g------------4----------------
d-------4b-2---4b-2-2-0-0-2---
a-----------------------------
E-0-0-----------------------3-

Chorus:
[ Tab from: http://www.guitartabs.cc/tabs/l/led_zeppelin/the_rover_tab_ver_2.html ]
e-------------------------------------------------------------------------------
b-------------------------------------------------------------------------------
g--11-11---9-9-9---7------------7/11-11--14-14-14--9/---------------------------
d--11-11---9-9-9---7------------7/11-11--14-14-14--9/---------------------------
a---9--9---7-7-7---5------------5/9---9--12-12-12--7/---------------------------
E-------------------------------------------------------------------------------

e------------------------------------------------------------------------------
b------------------------------------------------------------------------------
g-11-11--9--9--9--7------7---6--6--4------4--2--2------------------------------
d-11-11--9--9--9--7------7---6--6--4------4--2--2------------------------------
a--9--9--7--7--7--5------5---4--4--2------2--0--0------------------------------
E---------------------------------------------------3--0-----------------------

verse 2

e----------------
b------10----9--7
g----11-----9---7
d--11------9----7
a----------------
E----------------

e--------------------
b------10---14--12---
g----11-----14--13---
d--11-------14--14---
a--------------------
E--------------------

e-----------------------------------
b------10--9----7------5--4--2------
g----11----9----7-----6---4--2------
d--11------9----7----6----4--2------
a-----------------------------------
E-----------------------------------
Comments