Led Zeppelin - The Ocean Chords & Tabs

 

The Ocean Chords & Tabs

Led Zeppelin Chords & Tabs

Version: 5 Type: Bass Tab 0 ratings
1 star 2 stars 3 stars 4 stars 5 stars
comments

The Ocean Bass Tab

Band: Led Zeppelin
Title: The Ocean
Album: Houses of the Holy
Transcribed by: Jamie Kral
Standard Tuning

Intro Riff: 4x
 |1 + 2 + 3 + 4 + 5 + 6 + 7 + 8 + |1 + 2 + 3 + 4 + 5 + 6 + 7 + |
G|--------------------------------|----------------------------|
D|5h7-5h7-5-----------------------|----5-------7-------7-------|
A|----------7---------------------|5-7-----5-7-----4-----5---7-|
E|------------8-------------------|--------------------------^-|
								* omit on 4th x
(0:20) Verse 1: 4x
 |1 + 2 + 3 + 4 + 5 + 6 + 7 + 8 + |1 + 2 + 3 + 4 + 5 + 6 + 7 + 8 + |
G|--------------------------------|--------------------------------|
D|--------------------------------|--------------------------------|
A|5-5-5-5-----3-3-3-3-----0-------|0--3/5-5-5-5--------------------|
E|----------------------------3---|--------------------------------|

(0:50) Chorus: 4x
 |1 + 2 + 3 + 4 + 5 + 6 + 7 + 8 + |1 + 2 + 3 + 4 + 5 + 6 + 7 + |
G|--------------------------------|----------------------------|
D|5h7-5h7-5-----------------------|----5-------7-------7-------|
A|----------7---------------------|5-7-----5-7-----4-----5---7-|
E|------------8---8-8-8-8-8-7-7-7-|----------------------------|
                  PM..............|[ Tab from: http://www.guitartabs.cc/tabs/l/led_zeppelin/the_ocean_btab_ver_5.html ]
 |1 + 2 + 3 + 4 + 5 + 6 + 7 + 8 + |1 + 2 + 3 + 4 + 5 + 6 + 7 + 8 + |
G|--------------------------------|--------------------------------|
D|--------4---4-------4---5---6---|--------------------------------|
A|5---7-----------7---------------|5---2---------------------------|
E|--------------------------------|--------5---2---0---2---3---4---|

 |1 + 2 + 3 + 4 + 5 + 6 + 7 + 8 + |1 + 2 + 3 + 4 + 5 + 6 + 7 + 8 + |
G|--------------------------------|--------------------------------|
D|--------4-----------------------|--------4-----------------------|
A|--4---5-----7-------------------|--4---5-----7-------7-----------|
E|5-------------7-----0---5-------|5-------------7---------5-------|

(3:40)
 |1 + 2 + 3 + 4 + 5 + 6 + 7 + 8 + |1 + 2 + 3 + 4 + 5 + 6 + 7 + 8 + |
G|--------------------------------|------------4-------------------| 
D|--------------------------------|----4---7----7-4----------------|
A|5-5-----------------------------|5---------------7---5---4-------|
E|----7---5---2---0---2-2-3---4---|----------------------------7-5-|

 |1 + 2 + 3 + 4 + 5 + 6 + 7 + 8 + |1 + 2 + 3 + 4 + 5 + 6 + 7 + 8 + |
G|----4---------------6---4-------|--------------------------------| 
D|--------7---4---------------6---|--------------------------------|
A|5---------------7-------------7-|5---4---------------------------| 
E|--------------------------------|--------7---5---0---2---3---4---| 

 |1 + 2 + 3 + 4 + 5 + 6 + 7 + 8 + |1 + 2 + 3 + 4 + 5 + 6 + 7 + 8 + |
G|--------------------------------|--------------------------------|
D|--------4-----------------------|--------4-----------------------|
A|--4---5-----7-------------------|--4---5-----7-------7-----------|
E|5-------------7-----0---5-------|5-------------7---------5-------|

(4:03)
 |1 + 2 + 3 + 4 + 5 + 6 + 7 + 8 + |1 + 2 + 3 + 4 + 5 + 6 + 7 + 8 + |
G|--------------------------------|------------4-------------------|
D|--------------------------------|----4---7----7-4----------------|
A|5-5-2---------------------------|5---------------7---5---4-------|
E|--------5---2---0---2---3---4---|----------------------------7---|

 |1 + 2 + 3 + 4 + 5 + 6 + 7 + 8 + |1 + 2 + 3 + 4 + 5 + 6 + 7 + 8 + |
G|--------------------------------|--------------------------------|
D|--4---------4---2---------------|--------------------------------|
A|-5--5---7---------------2---7-6-|5-5-3---2-----------------------|
E|5-------------------4-----------|------------5---0---2---3---4---|

 |1 + 2 + 3 + 4 + 5 + 6 + 7 + 8 + |1 + 2 + 3 + 4 + 5 + 6 + 7 + 8 + |
G|--------------------------------|--------------------------------|
D|--------4-----------------------|--------4-----------------------|
A|--4---5-----7-------------------|--4---5-----7-------7-----------|
E|5-------------7-----0---5-------|5-------------7---------5-------|
Comments