Led Zeppelin - The Ocean Chords & Tabs

 

The Ocean Chords & Tabs

Led Zeppelin Chords & Tabs

Version: 1 Type: Bass Tab 1 rating
1 star 2 stars 3 stars 4 stars 5 stars
comments

The Ocean Bass Tab

   
The Ocean, by Led Zeppelin. 
Bass Part: John Paul Jones
Tab By: Micah The Bass Player
Comments: Smalenfa@maine.rr.com
[ Tab from: http://www.guitartabs.cc/tabs/l/led_zeppelin/the_ocean_btab.html ]
I play bass for my school band and can play very good.  My bass teacher is really good and 
taught me this song.  I know most people would say their bass teahcer is really good but 
my bass teacher knows what he is talking about.  This tab may look very complicated but it
is not at all if you just look through and learn one part at a time.  It took me awhile
to learn it but I can play it perfectly. The song is completly in order.  Please email
me if I did something wrong, but I am sure this is 100% correct.
 
This a great great tune. ALthough I do not know what Robert Plant is saying in almost all 
his songs.
_________________________________________________________________________________________
|Please Note:  The breakdown has many variations, I will right down the main riff with 2|
|variations I picked out!!!  ALso the breakdown is a Walking bass riff!!!               |                                              |
|_______________________________________________________________________________________|

Key-
h=hit


Verse-x4

E------------|-----------------------|
A--------7-3-|-5h7----5h7----4---5---|
D---77-5-----|-----5------7----6---6-|
G------------|-----------------------|

2nd part of Verse-x4

E-------------5-3-5------|
A---5555-3333-------5555-|
D------------------------|
G------------------------|

Verse-x4

2nd part of verse-x4

Verse-x4

2nd part of Verse-x4

(Pause LaLaLa part)

2nd part of Verse-x4

Verse-x4

(Breakdown)

Brige/Breakdown-x4

E-------------|----------|
A---5---------|-7--------|
D-----4-7---7-|---6-9---9|
G---------4---|-------6--|

Variation of Breakdown-

E-----2-5---5-|---4-7---7-|
A---5-----2---|-7-----4---|
D-------------|-----------|
G-------------|-----------|

2nd part of Breakdown-x2

E-------------------|------------------|
A---------------4-2-|-------------4----|
D-------7-6-4-2-----|-----7-6-4-2---2--|
G---6-4-------------|-6-4--------------|

Bridge/Breakdown-x4

2nd part of Breakdown-x2

Bridge/Breakdown-x4

2nd part of Breakdown-x2

THE END!

Thank You
Enjoy!
Comments