Led Zeppelin - Thank You Chords & Tabs

 

Thank You Chords & Tabs

Led Zeppelin Chords & Tabs

Version: 4 Type: Tab 0 ratings
1 star 2 stars 3 stars 4 stars 5 stars
comments

Thank You Tab

----3-2-0-0-----3-2-0-0-----3-2-0-0----2-2-2--3-3-3-3-2-2-|
----3-3-3-3-----3-3-3-3-----3-3-3-3----3-3-3--3-3-3-3-3-3-|
---------------------------------------2-2-2--2-2-2-2-2-2-|
--------------------------------------------------------0-|
--0----------------------------------0--------------------|
-------------3-----------2--------------------------------|
----------------------------------------------------------|

(These fingerpicked chords you can hardly hear, but they are played)
---------3-----3-------------3---3-----------2-3-2-----------2-3-2-----|
-------1-------------------3---------------3-------3-------3-------3---|
-----0-------------------0-----0---0-----2-----------2---2-----------2-|
---2--------2-----2----0---------------0---------------0---------------|
-3-------------------2-------------------------------------------------|
-----------------------------------------------------------------------|

---------3-----3-------------3---3-----------2-3-2-----------2-3-2-----|
-------1-------------------3---------------3-------3-------3-------3---|
-----0-------------------0-----0---0-----2-----------2---2-----------2-|
---2--------2-----2----0---------------0---------------0---------------|
-3-------------------2-------------------------------------------------|
-----------------------------------------------------------------------|
[ Tab from: http://www.guitartabs.cc/tabs/l/led_zeppelin/thank_you_tab_ver_4.html ]
-2-2-2--3-3-3-3-2-2--7-7-7-7-7-7-7-7-7-7-7-7-7-7-7-7-7-7-7-7-7-7-7-7-|
-3-3-3--3-3-3-3-3-3--7-7-7-7-7-7-7-7-9-9-9-9-9-9-9-9-7-7-7-7-7-7-7-7-|
-2-2-2--2-2-2-2-2-2--7-7-7-7-7-7-7-7-9-9-9-9-9-9-9-9-7-7-7-7-7-7-7-7-|
------------------0--9-9-9-9-9-9-9-9-9-9-9-9-9-9-9-9-9-9-9-9-9-9-9-9-|
---------------------9-9-9-9-9-9-9-9-7-7-7-7-7-7-7-7-9-9-9-9-9-9-9-9-|
---------------------7-7-7-7-7-7-7-7-----------------7-7-7-7-7-7-7-7-|


-7-5---8--8--8--8--8--8--8--8--3-3-3-3-3-3-3-3--3-3-3-3-333--333----|
-9-5---8--8--8--8--8--8--8--8--3-3-3-3-3-3-3-3--2-2-2-2-333--333----|
-9-6---9--9--9--9--9--9--9--9--0-0-0-0-0-0-0-0--3-3-3-3-222--222----|
-9-7---10-10-10-10-10-10-10-10-0-0-0-0-0-0-0-0--0-0-0-0-------------|
-7-7---10-10-10-10-10-10-10-10-2-2-2-2-2-2-2-2----------------------|
---5---8--8--8--8--8--8--8--8---------------------------------------|

-2-2-2--3-3-3-3-2-2--7-7-7-7-7-7-7-7-7-7-7-7-7-7-7-7-7-7-7-7-7-7-7-7-|
-3-3-3--3-3-3-3-3-3--7-7-7-7-7-7-7-7-9-9-9-9-9-9-9-9-7-7-7-7-7-7-7-7-|
-2-2-2--2-2-2-2-2-2--7-7-7-7-7-7-7-7-9-9-9-9-9-9-9-9-7-7-7-7-7-7-7-7-|
------------------0--9-9-9-9-9-9-9-9-9-9-9-9-9-9-9-9-9-9-9-9-9-9-9-9-|
---------------------9-9-9-9-9-9-9-9-7-7-7-7-7-7-7-7-9-9-9-9-9-9-9-9-|
---------------------7-7-7-7-7-7-7-7-----------------7-7-7-7-7-7-7-7-|


-7-5---8--8--8--8--8--8--8--8--3-3-3-3-3-3-3-3--3-3-3-3-333--333----|
-9-5---8--8--8--8--8--8--8--8--3-3-3-3-3-3-3-3--2-2-2-2-333--333----|
-9-6---9--9--9--9--9--9--9--9--0-0-0-0-0-0-0-0--3-3-3-3-222--222----|
-9-7---10-10-10-10-10-10-10-10-0-0-0-0-0-0-0-0--0-0-0-0-------------|
-7-7---10-10-10-10-10-10-10-10-2-2-2-2-2-2-2-2----------------------|
---5---8--8--8--8--8--8--8--8---------------------------------------|

----3-2-0-0-----3-2-0-0-----3-2-0-0----2-2-2--3-3-3-3-2-2-|
----3-3-3-3-----3-3-3-3-----3-3-3-3----3-3-3--3-3-3-3-3-3-|
---------------------------------------2-2-2--2-2-2-2-2-2-|
--------------------------------------------------------0-|
--0----------------------------------0--------------------|
-------------3-----------2--------------------------------|
----------------------------------------------------------|
Comments