Led Zeppelin - Stairway To Heaven Chords & Tabs

 

Stairway To Heaven Chords & Tabs

Led Zeppelin Chords & Tabs

Version: 7 Type: Tab 0 ratings
1 star 2 stars 3 stars 4 stars 5 stars
comments

Stairway To Heaven Tab

   
Led Zepplin
Stairway to Heaven (Solo)
Tabbed by Morphius
          PallusMorphius@hotmail.com

Tuning: Standard (EADGBe)

b  = full bend
br = bend and release
v  = vibrato
/  = slide up
p  = pull-off
h  = hammer-on

I broke the solo up into a buncha smaller main parts, the entire solo is here
It is just separated so people can learn it step by step.


|----5---------------------|----8-8-8b--8p5------8-10p8--------------|
|------8-5-----------------|-8b-------------8/10--------10-8----8h10-|
|-7b-------7-5---7-5-------|---------------------------------10------|
|--------------7-----7-5---|-----------------------------------------|
|------------------------8-|-----------------------------------------|
|--------------------------|-----------------------------------------|



|------5-----------------------------------|
|----5---8p5-------------------------------|
|-7b---------7-5---7-5-----------5---5-5p0-|
|----------------7-----7-5---5-7---7-------|
|--------------------------7---------------|
|------------------------------------------|



|-5--------------------------|
|---8-5----------------------|
|-------7-5---7-5------------|
|-----------7-----7-5-7-5----|
|-------------------------8v-|
|----------------------------|



|--------------------|-------------------|
|--------------------|----------------13-|
|--------------------|-------12-12h14----|
|-----10h12p10----10-|-12/14-------------|
|-/12----------12----|-------------------|
|--------------------|-------------------|


[ Tab from: http://www.guitartabs.cc/tabs/l/led_zeppelin/stairway_to_heaven_tab_ver_7.html ]
|--------------------|-15b-15p13-|
|-15b-15p13-15p13----|-----------|
|-----------------14-|-----------|
|--------------------|-----------|
|--------------------|-----------|
|--------------------|-----------|


Repeat this 12 times
|----------------|
|-15br-p13----13-|
|----------14----|
|----------------|
|----------------|
|----------------|



|-15b-12-15-12--------------------------------15-------------|
|--------------15-13----13-15-13----13-15-15b----15br-p13----|
|--------------------14----------14-----------------------14-|
|------------------------------------------------------------|
|------------------------------------------------------------|
|------------------------------------------------------------|



|-----15-17p15-------------------------|
|-15b----------15br-13-15-13----13-15b-|
|----------------------------14--------|
|--------------------------------------|
|--------------------------------------|
|--------------------------------------|



|-------------------------|
|-------------------------|
|-14b-14b-14-12-14-12-14v-|
|-------------------------|
|-------------------------|
|-------------------------|



|-----------------------------|
|-----5-------5---------------|
|-10b---7-5-7---7-5-7-8-7-5---|
|---------------------------7-|
|-----------------------------|
|-----------------------------|


      |- 6 times --|
|-----|--20p17-----|-20b-|
|-/17-|--------17--|-----|
|-----|------------|-----|
|-----|------------|-----|
|-----|------------|-----|
|-----|------------|-----|
Comments