Led Zeppelin - South Bound Suarez Chords & Tabs

 

South Bound Suarez Chords & Tabs

Led Zeppelin Chords & Tabs

Version: 1 Type: Bass Tab

South Bound Suarez Bass Tab

South Bound Suarez
Led Zeppelin

G---------------------------------------------------------------------------|
D---------------------------------------------------------------------------|
A---3-3-3-3-3-3-3-3-3-3-3-3-3-3-3-3-3-3-3-3-3-3-3-3-3-3-3-3-3-3-3-3-3-2-1---|
E---------------------------------------------------------------------------|

G---------------------------------------------------------------------------|
D---------------------------------------------------------------------------|
A---0-0-0-0-0-0-0-0-0-0-0-0-0-0-0-0-0-0-0-0-0-0-0-0-0-0-0-0-0-0-0-0-0-1-2---|
E---------------------------------------------------------------------------|

G---------------------------------------------------------------------------|
D---------------------------------------------------------------------------|
A---3-3-3-3-3-3-3-3-3-3-3-3-3-3-3-3-3-3-3-3-3-3-3-3-3-3-3-3-3-3-3-3-3-2-1---|
E---------------------------------------------------------------------------|

G---------------------------------------------------------------------------|
D---------------------------------------------------------------------------|
A---0-0-0-0-0-0-0-0-0-0-0-0-0-0-0-0-0-0-0-0-0-0-0-0-0-0-0-0-0-0-0-0-0-1-2---|
E---------------------------------------------------------------------------|
repeat until chorus

1ST-2ND CHORUS

G-------------------------------------------------------------------------|
D---2h3-3-3-3-3-3-3-3-3-3-3-3-3-3-3-3-------------------------------------|
A-------------------------------------2h3-3-3-3-3-3-3-3-3-3-3-3-3-3-3-3---|
E-------------------------------------------------------------------------|

G-------------------------------------------------------------------------|
D---2h3-3-3-3-3-3-3-3-3-3-3-3-3-3-3-3-------------------------------------|
A-------------------------------------2h3-3-3-3-3-3-3-3-3-3-3-3-3-3-3-3---|
E-------------------------------------------------------------------------|

G-------------------------------------------------------------------------|
D---2h3-3-3-3-3-3-3-3-3-3-3-3-3-3-3-3-------------------------------------|
A-------------------------------------2h3-3-3-3-3-3-3-3-3-3-3-3-3-3-3-3---|
E-------------------------------------------------------------------------|

G-----------------|
D-----------------|
A---1-LETRING-----|
E-------------1---|

During the guitar solo, play the entire verse and chorus.

3RD VERSE

G---------------------------------------------------------------------|
D---------------------------------------------------------------------|
A-----------------------------------3-3-3-3-3-3-3-3-3-3-3-3-3-3-3-3---|
E---1-1-1-1-1-1-1-1-1-1-1-1-1-1-1-1-----------------------------------|
[ Tab from: http://www.guitartabs.cc/tabs/l/led_zeppelin/south_bound_suarez_btab.html ]
G---------------------------------------------------------------------|
D---------------------------------------------------------------------|
A-----------------------------------3-3-3-3-3-3-3-3-3-3-3-3-3-3-3-3---|
E---1-1-1-1-1-1-1-1-1-1-1-1-1-1-1-1-----------------------------------|

G---------------------------------------------------------------------|
D---------------------------------------------------------------------|
A-----------------------------------3-3-3-3-3-3-3-3-3-3-3-3-3-3-3-3---|
E---1-1-1-1-1-1-1-1-1-1-1-1-1-1-1-1-----------------------------------|

G-----------------|
D-----------------|
A---1-LETRING-----|
E-------------1---|

PRE-OUTRO

G---------------------------------------------------------------------|
D---------------------------------------------------------------------|
A---3-3-3-3-3-3-3-3-3-3-3-3-3-3-3-3-3-3-3-3-3-3-3-3-3-3-3-3-3-3-3-3---|
E---------------------------------------------------------------------|

G---------------------------------------------------------------------|
D---------------------------------------------------------------------|
A---3-3-3-3-3-3-3-3-3-3-3-3-3-3-3-3-3-3-3-3-3-3-3-3-3-3-3-3-3-3-3-3---|
E---------------------------------------------------------------------|

G---------------------------------------------------------------------|
D---------------------------------------------------------------------|
A---3-3-3-3-3-3-3-3-3-3-3-3-3-3-3-3-3-3-3-3-3-3-3-3-3-3-3-3-3-3-3-3---|
E---------------------------------------------------------------------|

G-----------------------|
D-----------------------|
A---1-LETRING-1-0-------|
E-----------------3-1---|

OUTRO

G---------------------------------------------------------------------|
D---------------------------------------------------------------------|
A---3-3-3-3-3-3-3-3-3-3-3-3-3-3-3-3-3-3-3-3-3-3-3-3-3-3-3-3-3-3-3-3---|
E---------------------------------------------------------------------|

G---------------------------------------------------------------------|
D---------------------------------------------------------------------|
A---3-3-3-3-3-3-3-3-3-3-3-3-3-3-3-3-3-3-3-3-3-3-3-3-3-3-3-3-3-3-3-3---|
E---------------------------------------------------------------------|

G---------------------------------------------------------------------|
D---------------------------------------------------------------------|
A---3-3-3-3-3-3-3-3-3-3-3-3-3-3-3-3-3-3-3-3-3-3-3-3-3-3-3-3-3-3-3-3---|
E---------------------------------------------------------------------|

G---------------------------------------------------------------------------|
D---------------------------------------------------------------------------|
A---------3-3-3-3-3-3-3-3-3-3-3-3-3-3-3-3-3-3-3-3-3-3-3-3-3-3-3-3-3-3-3-3---|
E---0-1-3-------------------------------------------------------------------|

Led Zeppelin Is #1 Band