Led Zeppelin - Since Ive Been Loving You Solo Chords & Tabs

 

Since Ive Been Loving You Solo Chords & Tabs

Led Zeppelin Chords & Tabs

Version: 1 Type: Tab 0 ratings
1 star 2 stars 3 stars 4 stars 5 stars
comments

Since Ive Been Loving You Solo Tab

Instrument:Electric Guitar
Band: Led Zeppelin  
Song: Since I've been loving you! (solo)
Tabber: McCloud (Mc5Cloud@hotmail.com)

I found a tabbed version of "Since i've been loving you" on the net. The Intro 
verse part from this tab really helped me at learning this great song. But then 
I liked to play the damn nice solo! But I didn't got it because it's quit 
messed up...(Not a single bend is in it and Page does many bends
in this one) So I did this solo tab I hope its usefull....
Im not sure about the high-speed parts. Its too fast for hear all the notes exactly
so please e-mail me for corrections.

Tab Legend:

b = bend a note up to the following
r = release bend 
h = hammer on to the following note
p = pull off to the following note
v = vibrato (berhaps i wrote a bit too much of them :D)
x = mute the note which is ringing
~ = hold out
!..! = hold bend

E|------------------------|---------------------------|-----------------------------|
B|-------8h11p8----8h11h8-|------8--------------------|-----------------------------|
G|-10b12--------10--------|-10b12-10-8---8------------|-----------------------------|
D|------------------------|-----------10--10-8-8h10p8-|---8-------------------------|
A|------------------------|---------------------------|-10-10-8s6--6----------------|
E|------------------------|---------------------------|----------8---8~-------------|

E|------------------------|---------------------------|-----------------------------|
B|------------------------|---------------------------|-----------------------------|
G|-----------8------------|-10p8----10p8----8---------|----8-10b12-10b12-10-8-10-10v|
D|--------8-----10p8h10---|------10------10---10--10v-|-10--------------------------|
A|---8s10-----------------|---------------------------|-----------------------------|
E|------------------------|---------------------------|-----------------------------|

E|-----11-10-8---10p8-----|---------------------------|-----------------------------|
B|-8-9---------9------999-|-8-------------------------|-----------------------------|
G|------------------------|---10-8--------------------|-----------------------------|
D|------------------------|--------10-8s6---8s6--6----|-----------------------------|
A|------------------------|---------------8-----8--8v-|-8s10-8-8-8s6----------------|
E|------------------------|---------------------------|--------------8v-------------|

E|----8-------------------|---------------------------|--------------15-------------|
B|-8x8-11p8---------------|----16--18-16-18b20-18b20!.|.!20r18-16-18----16~--18-16--|
G|---------10b12-10-8---8x|-17------------------------|-----------------------------|
D|-------------------10v--|---------------------------|-----------------------------|
A|------------------------|---------------------------|-----------------------------|
E|------------------------|---------------------------|-----------------------------|

                                              /------\ - fastest as possible \pull offs
E|------------------------|------15-----16-15---------|-----------------------------|
B|-18b20-18b20v-18-18b20--|-16-18---16~-------19181615|-----------------------------|
G|------------------------|---------------------------|17-------15-17---------------|
D|------------------------|---------------------------|--15--19-------15-19-15-15v--|
A|------------------------|---------------------------|-----------------------------|
E|------------------------|---------------------------|-----------------------------|
[ Tab from: http://www.guitartabs.cc/tabs/l/led_zeppelin/since_ive_been_loving_you_solo_tab.html ]
E|------------------------|---------------------------|-----------------------------|
B|-------------16---------|-------16-13-16b19r16-13---|-16b19r16-13---16b19r16-13---|
G|----15-15b17---15b17v---|-15b17---------------------|-----------------------------|
D|-19---------------------|---------------------------|-----------------------------|
A|------------------------|---------------------------|-----------------------------|
E|------------------------|---------------------------|-----------------------------|

E|------------------------|---------------------------|-----------------------------|
B|-18b20-18b20-18b20-18---|-18b20-18-18b20-18-18b20-16|-----------------------------|
G|------------------------|---------------------------|-17v-------------------------|
D|------------------------|---------------------------|-----------------------------|
A|------------------------|---------------------------|-----------------------------|
E|------------------------|---------------------------|-----------------------------|

E|--------8---------------|---------------------------|-----------------------------|
B|------8---11p8--8-------|---------------------------|-----------------------------|
G|-10b12--------10-10p8---|-8-------------------------|-------------------------8---|
D|---------------------10-|--10-10p8--8---------------|------------8--8h10p8-10-----|
A|------------------------|---------10-10-10p8s6-8p6--|6--6s8h10-10-10--------------|
E|------------------------|-------------------------8-|-8---------------------------|
						      means two times fret 10 - /---\ 
E|-------------------8----|11p8-10p8--8---------------|-----------------------------|
B|-----------------8--11p8|---------11-11b13v-11-8----|-----------------------------|
G|----8h10p8-10b12--------|----------------------10b12|-10p8---10---8------10x-8----|
D|-10---------------------|---------------------------|------10--10--10-10------1010|
A|------------------------|---------------------------|-----------------------------|
E|------------------------|---------------------------|-----------------------------|

E|------------------------|--10-13-13b15v--13--10--13-|-13b15-13-10-12p10-----------|
B|------------------------|11-------------------------|-------------------11-11v----|
G|10x-8-----10x-8--8-10s12|---------------------------|-----------------------------|
D|-----1010------10-------|---------------------------|-----------------------------|
A|------------------------|---------------------------|-----------------------------|
E|------------------------|---------------------------|-----------------------------|

E|------------------------|---------------------------|-----------------------------|
B|-------------16-------16|----18b20-18b20-18b20-18v--|-18b20-16--------------------|
G|----15-15b17----15b17---|-15------------------------|----------15v----------------|
D|-19---------------------|---------------------------|-----------------------------|
A|------------------------|---------------------------|-----------------------------|
E|------------------------|---------------------------|-----------------------------|

E|----------10------------|---------------------------|-----------------------------|
B|-------10----11p8-------|-----------------16-18-16--|-18b20-18b20!..!20r18-16-18--|
G|-10b12------------10b12-|-10-8---------17-----------|-----------------------------|
D|------------------------|-----10-10v----------------|-----------------------------|
A|------------------------|---------------------------|-----------------------------|
E|------------------------|---------------------------|-----------------------------|

E|------------------------|---------------------------|-----------------------------|
B|-19-18b20-18b20!..!20r18|-16------------------------|-----------------------------|
G|------------------------|----15sdown----------------|-----------------------------|
D|------------------------|---------------------------|-----------------------------|
A|------------------------|---------------------------|-----------------------------|
E|------------------------|---------------------------|-----------------------------|

...I'm about to loose my worried mind

-->email for questions, mistake correction....
Comments