Led Zeppelin - Rock And Roll No Solo Chords & Tabs

 

Rock And Roll No Solo Chords & Tabs

Led Zeppelin Chords & Tabs

Version: 1 Type: Tab 0 ratings
1 star 2 stars 3 stars 4 stars 5 stars
comments

Rock And Roll No Solo Tab

band-led zeppelin
song-rock and roll
album-led zeppelin IV

this is a awesome song with a simple riff:

(after drums)
-----------------------------------------------------------------------------------
-----------------------------------------------------------------------------------
--------------------------------REPEAT-3X---2-2-2-2-5-2-4-2-2---2---2-2------------
--2-2-2-2---5-2-4-2-----2---2---------------0---3-0-0-0-0-0-0-0-3-0-3-0--REPEAT 1X-
--0---3-0-0-0-0-0-0-0-0-3-0-3-0----------------------------------------------------
-----------------------------------------------------------------------------------
[ Tab from: http://www.guitartabs.cc/tabs/l/led_zeppelin/rock_and_roll_no_solo_tab.html ]
--------------------------------------------------------------
--------------------------------------------------------------
--------------------------------------------------------------
---------------------------------2-2-2---5---4-2---2-2-2-2----
----2----5---4-2-2-2---2-2-2-2--0-0-3-0-0-0-0-0-0-0-3-0-0----
0-0-3-0--0-0-0-3-0-0-0-3-0-3-0-------------------------------

thats the intro

heres the verse:
-----------------------------------------------------------------------------
-----------------------------------------------------------------------------
------------------------------2-----2-----2----2----0------------------------
---2-----2----2----2-X---2----0-----0-----0----0-X--2---2---2---2--2-X--0----
---0-----0----0----0-X---0--3-----3-----3----3---X-3----0---0---0--0-X--2----
-3-----3----3----3---X-3-------------------------X----3---3---3---3--X-3-----

-----------------------------------------
-----------------------------------------
-----------------------------------------
-9-9-11-9-9-9--11-9-9-9-11-9-9-9-11-9-7--
-7-7-7--7-7-7--7--7-7-7-7--7-7-7-7--7-5--
-----------------------------------------

thats the inro and verse
to figure out the timing 4 the verse just listen to the cd
its pretty easy

shreddedweatg3@netscape.net
Comments