Led Zeppelin - Over The Hills And Far Away Chords & Tabs

 

Over The Hills And Far Away Chords & Tabs

Led Zeppelin Chords & Tabs

Version: 3 Type: Tab 2 ratings
1 star 2 stars 3 stars 4 stars 5 stars
comments

Over The Hills And Far Away Tab

   
This is my first tab, so please, cut me some slack.  As I went through
tabs to finds this song, I knew it was never exactly right, and a little 
tougher than it should actually be.  So I went and bought the book, and
here is the following corrections, and pointers.  Long live Zeppelin.
If you have any questions email me{fballplayer86@yahoo.com}!
Enjoy!

Tuning-EADGBE

Led Zeppelin
Over the Hills and Far Away
Houses of The Holy

Written by Jimmy Page and Robert Plant

----------------------------------------------------
CHORDS
----------------------------------------------------
 G D
-3-2-
-0-3-
-0-2-
-0-0-
-X---
-3---
----------------------------------------------------

Intro(2x)
                 ^                              ^ 
---------------3-3-3|-----------------------2-2-2-2|
---------------0-0-0|-----------------------3-3-3-3|
-0h2p0------0--0-0-0|-0h2p0----0-h4p2p0-0---2-2-2-2|
--------4p0----0-0-0|--------4------------0-0-0-0-0|
---------------0-0-0|------------------------------|
---------------3-3-3|------------------------------|
[ Tab from: http://www.guitartabs.cc/tabs/l/led_zeppelin/over_the_hills_and_far_away_tab_ver_3.html ]
                 ^                              ^ 
---------------3-3-3|-----------------------2-2-2-2|
---------------0-0-0|-----------------------3-3-3-3|
-0h2p0------0--0-0-0|-0h2p0----0-h4p2p0-0---2-2-2-2|
--------4p0----0-0-0|--------4------------0-0-0-0-0|
---------------0-0-0|------------------------------|
---------------3-3-3|------------------------------|
                   ^
-----------------3-3-3|-----------------------|
-----------------0-0-0|-----------------------|
-----------------0-0-0|-0h2p0---0-h4p2p0-0----|
-----2---2-0h2p0-0-0-0|-------4-------------0-|
-0-2---2---------0-0-0|-----------------------|
-----------------3-3-3|-----------------------|

-------------------------------------------------------------

Second time around              strum 'n'  
                [*]               slide 
--------------------|----------|--------|------|
---------------3-3-3|----3-3-3-|----3-/-|-5--s-|
-0h2p0---------0-0-0|----0-0-0-|----0-/-|-0--t-|
--------4p0----2-2-2|----0-0-0-|----3-/-|-5--r-|
------------3--3-3-3|-2--2-2-2-|-1--1-/-|-3--u-|
--------------------|----------|--------|----m-|

Back to intro and play through it again. 
But when you reach [*]go to here.
          [3x]           then slide to
                          Listen to the album to get the rhythem. 
                       (4x) (6-8x)
----------------2-2-2-0|-7-/-9--|
----------------3-3-3-3|-8-/-10-|
----------------2-2-2-2|-7-/-9--|
---------0-2-0--0-0-0-0|--------|
-----0-2---------------|--------|
-3-3-------------------|--------|

to be continued
Comments