Led Zeppelin - Over The Hills And Far Away Chords & Tabs

 

Over The Hills And Far Away Chords & Tabs

Led Zeppelin Chords & Tabs

Version: 3 Type: Bass Tab 0 ratings
1 star 2 stars 3 stars 4 stars 5 stars
comments

Over The Hills And Far Away Bass Tab

Over The Hills And Far Away by Led Zeppelin

standard tuning

(1:27)
G|----------------|
D|--------5-------|
A|---------5--50--|
E|----------------|

G| ----------------|----------------|----------------|----------------|
D|o--------------42|--------5-------|--------------42|----------------|
A|o---------0-0-0--|---------5--50--|---------0-0-0--|----------------|
E| 33333-----------|33333-----------|33333-----------|33333----5-5-7--|
 _____________________________________________________________________
 |1.2.
G|----------------|----------------|----------------|---------------- |
D|----------------|----------------|----------------|--------5-------o|
A|5---57----------|5---5-----------|5---57--------5-|5---5----5--50--o|
E|---7-----5-5-7-7|---7-7---5-5-7--|---7-----5-5-7-7|---7-7---------- |
 __________________
 |3.
G|----------------|----------------|----------------|----------------|
D|5--55-75--------|---------------2|5--55-42--------|----------------|
A|--------5--55--5|5-0-7--------2--|-----------55--5|5-420-------2---|
E|----------------|------0---0-4---|----------------|-----0---4------|

G|----------------|----------------| |----------------|----------------|
D|5--557----------|----------------| |------4---2-----|------4---------|
A|--------5--557--|5---------------| |---4-------4----|---4------------|
E|----------------|----750---------| |2------------2--|2---------------| 5X
[ Tab from: http://www.guitartabs.cc/tabs/l/led_zeppelin/over_the_hills_and_far_away_btab_ver_3.html ]
G|----------------|----------------|-----------3--6-|-9--11-------9--|-11---|
D|------4---2-----|------4---------|-----2--444-----|-------8--11----|------|
A|---4-------4----|---4------------|--4-------------|----------------|------|
E|2------------2--|2-----------2--6|----------------|----------------|------|

G|----------------|----------------|----------------|----------------|
D|----------------|----------------|----------------|--------5-------|
A|5---57--------5-|5---5---------5-|5---57-------5--|5---5----5--50--|
E|---7-----5-5-7-7|---7-7---5-5-7-7|---7-----5-7---7|---7-7----------|

G|----------------|----------------|----------------|----------------|
D|--------------42|--------5-------|--------------42|----------------|
A|---------0-0-0--|---------5---0--|---------0-0-0--|-------------5--|
E|33333-----------|33333-----------|33333-----------|33333----5-5----|

G|----------------|----------------|----------------|----------------|
D|----------------|----------------|----------------|--------7-------|
A|5---57--------5-|5---5---------5-|5---57-------5--|5---5----5---0--|
E|---7-----5-5-7-7|---7-7---5-5-7-7|---7-----5-5---7|---7-7----------|

G|----------------|----------------|----------------|--------------------|
D|--------------42|--------7-------|--------------42|---------------020--|
A|---------0-0-0--|---------5---0--|---------0-0-0--|-------------02---20|
E|33333-----------|33333-----------|33333-----------|33333----3-3--------|

G|----------------|----------------|
D|0----------020--|-----------020--|
A|---------02---20|---------02---20|
E|-----3-3--------|3----3-3--------| 4X

G|----------------|----------------|
D|0----------020--|-----------02---|
A|---------02---20|---------02-----|
E|-----3-3--------|3----3-3--------|
Comments