Led Zeppelin - Over The Hills And Far Away Chords & Tabs

 

Over The Hills And Far Away Chords & Tabs

Led Zeppelin Chords & Tabs

Version: 1 Type: Bass Tab 0 ratings
1 star 2 stars 3 stars 4 stars 5 stars
comments

Over The Hills And Far Away Bass Tab

Over The Hills And Far Away - Led Zeppelin

  Intro parts

G|---------------h4\2--------------|-------------|-----------------------------------|
D|-5-5-55-5h7p4h5----0-0-00-5h7p5-5|--2-020-0-00-|5h7p4------------------------------|
A|-------------------------------5-|-2-2---------|-----53--3222--21-1-1111/3-333-3-33|
E|---------------------------------|3------------|-----------------------------------|

G|----------------------------------------------|
D|5h7p4---------020-0------020-0-0------020-0-0-|
A|-----53-3---02---------02-----------02--------|
E|---------33---------33-----------33-----------|
[ Tab from: http://www.guitartabs.cc/tabs/l/led_zeppelin/over_the_hills_and_far_away_btab.html ]
  verse  "Many have I loved"
G|-----------------------------------------------------------------------------------------
D|-----------------------------------------------------------------------------------------
A|105-5---------------87-------105-5---------------87----------------5-5-57----------5-5-5--
E|-----5--33333--5-5-5--33333-------5--33333--5-5-5--33333--5-5-5hp57---7---5-5-5h7p5---7-7-

--------------------------------|
--------------------------------|
---------5-5-57----------5-5-5--|
5-5-5h7p5---7---5-5-5h7p5---7-7-|

on the end of a verse before the solo it does this
G|------------------------------|
D|-------7----------------------| (x3)
A|10-1010--5-557--557-------0---|
E|--------------------0-0-01-210|

  outro riff
G|-------------|
D|------0320---|
A|----02----2--|
E|3-3--------3-|


Comments