Led Zeppelin - Nobodys Fault But Mine Chords & Tabs

 

Nobodys Fault But Mine Chords & Tabs

Led Zeppelin Chords & Tabs

Version: 1 Type: Bass Tab 0 ratings
1 star 2 stars 3 stars 4 stars 5 stars
comments

Nobodys Fault But Mine Bass Tab

   
Led Zeppelin's Nobody's Fault But Mine Bass Tab

Submitted by Kurt

Tuning: Normal

p = pull off
b = bend

This comes after the intro:

G|----------------------------------------|--------------------------|
D|--2p0-0--------------2p0-0--------------|--------------------------|
A|--------2p0-0--------------2p0-0----0---|--5p0-0-5p0-0-5-------7-7-|repeat
E|--------------3b-0---------------3b-----|----------------0-0-0-----| |--|

Main Riff:
[ Tab from: http://www.guitartabs.cc/tabs/l/led_zeppelin/nobodys_fault_but_mine_btab.html ]
G|------------------------------------------------------------------------|
D|------------------------------------------------------------------------|
A|--5p0-0-5p0-0-5-------7-7---5p0-0-5p0-0-5-------7-7---------------------|
E|----------------0-0-0---------------------0-0-0------2-3--3/5-5--555555-|
 nobody's fault but mine    nobody's fault but mine    try...soul tonight
                     oh ... it's nobody's fault but mine

lather, rinse, repeat

submitted by Kurt
Nobody's Fault But Mine
Comments