Led Zeppelin - Moby Dick Chords & Tabs

 

Moby Dick Chords & Tabs

Led Zeppelin Chords & Tabs

Version: 5 Type: Tab 0 ratings
1 star 2 stars 3 stars 4 stars 5 stars
comments

Moby Dick Tab

   
!!! USofA !!!Led Zeppelin
Moby Dick

p= pull off
~= let ring

Figure A

e| --------------------|  
B| --------------------|
G| --------------------| 
D| ---2-2p0------------|
A| ---------2---0---0--|
E| -0~~~~~~---3---3----|

Figure B
[ Tab from: http://www.guitartabs.cc/tabs/l/led_zeppelin/moby_dick_tab_ver_5.html ]
e| --------------------|
B| --------------------|
G| ----2-2p0-----------| 
D| ----------2---0---0-|
A| -0~~~~~~~---3---3---|
E| --------------------|

Figure C

e| --------------------|
B| --------------------|
G| ---4-4p2---4-2-2-2-4|
D| ---------4----------|
A| -2~~~~~~------------|
E| --------------------|

Progression: Figure A x4, Figure B x2, Figure A x2, 
             Figure C x1, Figure B x2, Figure A x4, REPEAT

Corrections/hatemail roymoose@aol.com
Comments