Led Zeppelin - Moby Dick Chords & Tabs

 

Moby Dick Chords & Tabs

Led Zeppelin Chords & Tabs

Version: 3 Type: Tab 0 ratings
1 star 2 stars 3 stars 4 stars 5 stars
comments

Moby Dick Tab

hey this is moby dick off ot Led Zeppelin II and hope you enjoy

[Riff 1]

e:-------------------------------|
B:-------------------------------|
G:o-----------------------------o|
D:o-----------------------------o|
A:----5--5--3--------------------|
E:-0-----------5--3~-5--3--5--3--|

[Riff 2]

e:-------------------------------|
B:-------------------------------|
G:o-----------------------------o|
D:o--5--5--3--0-----------------o|
A:---------------1~-3--1--3--1---|
E:-5-----------------------------|

[Riff 3]

e:--------------------------------------------------------------|
B:--------------------------------------------------------------|
G:-------------------------------------------5(b7)--5--2--------|
D:---7--7p5-----7--7---5--7-0-5-5-5-5-5--3---------------5--3---|
A:-----------7-------7---------------------5--------------------|
E:-7------------------------------------------------------------|

Song progression:

[Riff 1] x4
[Riff 2] x2
[Riff 1] x2
[Riff 3] x1
[Riff 1] x3

[Solo 1]:

  e:-----------10----------------------------------------------------|
  B:--------10------------------------------------------12--10------|
  G:-12b14---------12b14r12-10----12-10-----------------12--10------|
  D:---------------------------12--------12~--12-10-12---------------|
  A:-----------------------------------------------------------------|
  E:-----------------------------------------------------------------|

[Riff 1] x1

[Solo 2]:
[ Tab from: http://www.guitartabs.cc/tabs/l/led_zeppelin/moby_dick_tab_ver_3.html ]
  e:----------------------------------------------------------13b15----|
  B:--------13b15~13b15~13b15~13b15~13b15~13b15~13b15------------------|
  G:-------------------------------------------------------------------|
  D:-------------------------------------------------------------------|
  A:-------------------------------------------------------------------|
  E:-------------------------------------------------------------------|
                   hold bend and strike

     **             **
  e:-10----13b15----10-------------------------------------------------|
  B:--10-------------10------------------------------------------------|
  G:---12-------------12-----------------------------------------------|
  D:-------------------------------------------------------------------|
  A:-------------------------------------------------------------------|
  E:-------------------------------------------------------------------|
  (** rake these very quickly)

[Riff 2] x1

[Solo 3]:
  e:-3p1p0--------------------3p1p0------------------------------------|
  B:-------3p1p0--------------------3p1p0------------------------------|
  G:-------------4p2p0--------------------4p2p0------------------------|
  D:-------------------3p2p0--------------------3p2p0------------------|
  A:--------------------------------------------------3p2p0------------|
  E:-------------------------------------------------------------------|
                                                  faster

[Riff 1] x1

[Solo 4]:

  e:-----------------------------------10------------------------------|
  B:----------------------------10-12-----13b15--13b15~~~-------------|
  G:-----------------7-7-7-9s11----------------------------------------|
  D:-----------7-9-----------------------------------------------------|
  A:-5-5-5-7s9---------------------------------------------------------|
  E:-------------------------------------------------------------------|

tabbed by Led_Zeppelin13
Comments