Led Zeppelin - Moby Dick Chords & Tabs

 

Moby Dick Chords & Tabs

Led Zeppelin Chords & Tabs

Version: 11 Type: Tab 0 ratings
1 star 2 stars 3 stars 4 stars 5 stars
comments

Moby Dick Tab

Moby Dick - Led Zeppelin, www.ultimate-guitar.com

Tabbed by: whodat

~= vibrato/held note
h= hammer on
p= pull off
s= slide
b= bend string to shown fret
r= release bend to shown fret
/= slide up from infinity
\= slide down to infinity
+= harmonic
x= muted note

TIMING: 4/4
TUNING: Dropped D (DADGBe)___________________________________________________________________________

I tabbed this in the order of the song.


e|-------------------------------| 
B|-------------------------------| 
G|-------------------------------|  X4
D|-------------------------------| 
A|---5--5--3---------------------|
D|-0----------5--3~-5--3--5--3---| 


e|-------------------------------| 
B|-------------------------------| 
G|-------------------------------|  X2
D|---5--5--3--0------------------| 
A|---------------1~-3--1--3--1---| 
D|-5-----------------------------|


e|-------------------------------| 
B|-------------------------------| 
G|-------------------------------|  X2
D|-------------------------------| 
A|---5--5--3---------------------|
D|-0----------5--3~-5--3--5--3---| 


e|--------------------------------------------------------------| 
B|--------------------------------------------------------------| 
G|-------------------------------------------5(b7)--5--2--------| X1
D|---7--7p5-----7--7---5--7-0-5-5-5-5-5--3---------------5--3---| 
A|-----------7-------7---------------------5--------------------| 
D|-7------------------------------------------------------------| 


e|-------------------------------| 
B|-------------------------------| 
G|-------------------------------|  X3
D|-------------------------------| 
A|---5--5--3---------------------|
D|-0----------5--3~-5--3--5--3---| 




(SOLO 1)
e|-----------10----------------------------------------------------| 
B|--------10------------------------------------------12--10\------| 
G|-12b14---------12b14r12-10----12-10-----------------12--10\------| 
D|---------------------------12--------12~--12-10-12---------------|
A|-----------------------------------------------------------------| 
D|-----------------------------------------------------------------|


e|-------------------------------| 
B|-------------------------------| 
G|-------------------------------| 
D|-------------------------------| 
A|---5--5--3---------------------|
D|-0----------5--3~-5--3--5--3---| 

[ Tab from: http://www.guitartabs.cc/tabs/l/led_zeppelin/moby_dick_tab_ver_11.html ]
(SOLO 2)
e|----------------------------------------------------------13b15----| 
B|--------13b15~13b15~13b15~13b15~13b15~13b15~13b15------------------| 
G|-------------------------------------------------------------------| 
D|-------------------------------------------------------------------| 
A|-------------------------------------------------------------------| 
D|-------------------------------------------------------------------| 
                                
e|-10----13b15----10-------------------------------------------------| 
B|--10-------------10------------------------------------------------| 
G|---12-------------12-----------------------------------------------| 
D|-------------------------------------------------------------------| 
A|-------------------------------------------------------------------| 
D|-------------------------------------------------------------------|
         


e|-------------------------------| 
B|-------------------------------| 
G|-------------------------------|  
D|---5--5--3--0------------------| 
A|---------------1~-3--1--3--1---| 
D|-5-----------------------------|
                        


(SOLO 3)
e|-3p1p0--------------------3p1p0------------------------------------| 
B|-------3p1p0--------------------3p1p0------------------------------| 
G|-------------4p2p0--------------------4p2p0------------------------| 
D|-------------------3p2p0--------------------3p2p0------------------| 
A|--------------------------------------------------3p2p0------------| 
D|-------------------------------------------------------------------|


e|-------------------------------| 
B|-------------------------------| 
G|-------------------------------|  
D|-------------------------------| 
A|---5--5--3---------------------|
D|-0----------5--3~-5--3--5--3---| 


(SOLO 4)
e|-----------------------------------10------------------------------| 
B|----------------------------10-12-----13b15--13b15~~~\-------------| 
G|-----------------7-7-7-9s11----------------------------------------| 
D|-----------7-9-----------------------------------------------------| 
A|-5-5-5-7s9---------------------------------------------------------| 
D|-------------------------------------------------------------------|


e|--------------------------------------------------------------|------| 
B|--------------------------------------------------------------|-3----| 
G|-------------------------------------------5(b7)--5--2--------|-2----| 
D|---7--7p5-----7--7---5--7-0-5-5-5-5-5--3---------------5--3---|-0----| 
A|-----------7-------7---------------------5--------------------|------| 
D|-7------------------------------------------------------------|------|




[Drum Solo]




e|-------------------------------| 
B|-------------------------------| 
G|-------------------------------|  
D|-------------------------------| 
A|---5--5--3---------------------|
D|-0----------5--3~-5--3--5--3---| 



e|-------------------------------| 
B|-------------------------------| 
G|-------------------------------|  
D|---5--5--3--0------------------| 
A|---------------1~-3--1--3--1---| 
D|-5----------------------------5|

   

e|--------------------------------------------------------------| 
B|--------------------------------------------------------------| 
G|-------------------------------------------5(b7)--5--2--------| 
D|---7--7p5-----7--7---5--7-0-5-5-5-5-5--3---------------5--3---| 
A|-----------7-------7---------------------5--------------------| 
D|-7------------------------------------------------------------| 


       e|-------------------------------------------------------|
       B|--7-------5----------0---------------------------------|
END:   G|--7-------5----------0---------------------------------|
       D|--7-------5----------0---------------------------------|
       A|--5-------3----------2---------------------------------|
       D|-------------------------------------------------------|


OK...that's all. I'm pretty sure this is correct. Sorry if it was
confusing or anything, but this is only the first tab I've written :)
Comments