Led Zeppelin - Misty Mountain Hop Chords & Tabs

 

Misty Mountain Hop Chords & Tabs

Led Zeppelin Chords & Tabs

Version: 1 Type: Tab 6 ratings
1 star 2 stars 3 stars 4 stars 5 stars
comments

Misty Mountain Hop Tab

E|--------------------------------
B|--------------------------------
G|--------------------------------
D|---2--------2----2--------2-----
A|---0-------------0--------------
E|------3b--0---0-----3b--0---0---

  This next part comes in after that
E|----------------------------------------------------
B|----------------------------------------------------
G|----------------------------------------------------
D|----------------------------------------------------                  
A|---4--5--3--4--5--3--4--5--3--4--5--3--4--5--3--4---
E|----------------------------------------------------

  This part comes in after they play those two riffs a couple times.
E|---------2------------------
B|-------3---3----------------
G|-----2-------2---------0----
D|---0-----------------0------
A|-------------------2--------
E|---------------0-3----------

  Then he plays the main riff again.  Later comes in this riff that sounds 
  just like the main riff
E|----------------------------------------
B|----------------------------------------
G|----------------------------------------
D|----------------2-----------------2-----
A|----------------------------------------
E|---3^(5)--3b--0---0--3^(5)--3b--0---0---

The solo starts out going along with the main riff and then branching 
off later.
[ Tab from: http://www.guitartabs.cc/tabs/l/led_zeppelin/misty_mountain_hop_tab.html ]
  Guitar Solo
E|---------------------------------------------------------------------
B|---------------------------------------------------------------------
G|---\6--4--0h2h4---\6--4--0h2h4---\6--4--0h2h4---\6--4--0h2h4---\11-9-
D|---------------------------------------------------------------------
A|---------------------------------------------------------------------
E|---------------------------------------------------------------------

E|---------------------------------------------------------------------
B|--------------------------------------------------------------------- 
G|--7-h9---\11--9--7-h9---\11--9--7-h9---\11--9--7-h9---11-p9----------
D|-------------------------------------------------------------12-p9---
A|---------------------------------------------------------------------
E|---------------------------------------------------------------------

E|------10-----------------------------------------------10------------
B|---------10^(12)-10--8---8-10-----------------------------10^(14)-10-
G|-----------------------9-----------------11-p9-----------------------
D|--12---------------------------7^(9)------------12-p9----------------
A|---------------------------------------------------------------------
E|---------------------------------------------------------------------

E-------------------
B--8---8-10---------
G----9-------7^(9)--
D-------------------           Then, from the distance, fades in this 
A-------------------           next guitar part which is played four
E-------------------           times as much as shown. 

E|---7^(8)--7-5-7----------7^(8)--7-5-7----------
B|-----------------5h7p5-----------------5h7p5---
G|-----------------------------------------------
D|-----------------------------------------------                       
A|-----------------------------------------------
E|-----------------------------------------------
Comments