Led Zeppelin - Misty Mountain Hop Chords & Tabs

 

Misty Mountain Hop Chords & Tabs

Led Zeppelin Chords & Tabs

Version: 3 Type: Bass Tab 0 ratings
1 star 2 stars 3 stars 4 stars 5 stars
comments

Misty Mountain Hop Bass Tab

                              Misty Mountain Hop

Adam, Iampinkfloyd@hotmail.com

Heres the bass for a great old Zep song. When performing it live,
JPJ played the bass parts on his organ, yet another reason why we should all worship him.
Great song though, and in my opinion you can't play it without the bass.

Intro refers to the main riff played during intro and before each verse.

Intro                                Verse
                               3x                            3x
G||-----------------------------||----------------------------||
D||*-----------------2---------*||*--------------------------*||
A||*---------------------------*||*--------------------------*||
E||---5----3----0---------0-----||---5--5--5--5--5--5--5--5---||

Intro x4

Verse x4

Intro x4

Bridge 1:
-----------------------|-----------------------|-------------------------|
-----------------4-----|--5--------------------|------------------4h-5---|
--5--5----0--5---------|-----5--2------------4-|--5--5--0--2--5----------|
-----------------------|-----------3--5--------|-------------------------|

------------------------|
--5--2------------------|
--------2---------------|
-----------3----x--5----|
Intro x4

Verse x4

Intro x4

Verse x4

Intro x4

Bridge 2:

-|-------------------------|--------------------------|
-|-------------------------|--------------------------|
-|--5--5----------5--------|--------2----3-----4--5---|
-|----------5/-7-----7--5--|--3--5----------5--------5|

-|--------------7----------|--------------------------|
-|--------4--7-------7-----|--------5----3---2--------|
-|--5--5----------5-----5--|-------------------5------|
-|-------------------------|--3--3---------------5--5-|

Intro x4

Verse x4

Intro x4

Verse x4

Intro x4

Bridge 3
[ Tab from: http://www.guitartabs.cc/tabs/l/led_zeppelin/misty_mountain_hop_btab_ver_3.html ]
|-------------------------|-----------------------|
|-------------------4h-5--|-----------------------|
|--5--5----0--5-----------|--0h-2--5--------------|
|-------------------------|-----------3-------5---|

                                                     
-------------------------|--------------------------|
-------------------------|--------5--3--2-----------|
--5--5--0--2--5----2--0--|-----5-----------5--------|
-------------------------|--3-----------------x--0--|

Guitar Solo

                          3x                          3x
|---2---------------------||--------------------------||
|*-------5---------2-----*||*------------------2-----*||
|*-----------------------*||*------------------------*||
|-------------0-------0---||---5--5--3----0-------0---||


Bridge 4                                                              
-------------------------|-------------------------|
-------------------4--5--|--3--2-------------------|
--5--5--0--2--5----------|--------5----2-----------|
-------------------------|----------------3--4--5--|

-------5--4--------------|----------------------|-------------------|
---------------7--0------|--5----3----2---------|-------------------|
4h-5--5------------------|-----------------5----|-------------------|
-------------------------|----------------------|--5----------------|

Intro x5

Verse x4

Intro x4

Verse x4

Intro x4

Bridge 5

|-------------------------|------------------------|
|-------------------------|--------------5/-7------|
|--5--5--0--2--5----------|-----2--5--5------------|
|------------------2h-3---|--5---------------------|

|------------------------|--------------------------|
|------------------------|--5--5--2--0--5-----------|
|--5--0--2--5--2--0------|--------------------------|
|------------------------|-----------------3--3--5--|

Outro

-----------|--------------------------||
-----------|*------------------2-----*||
-----------|*------------------------*||
-----0--0--|---5--5--3----0-------0---||

Fade Out.
Comments