Led Zeppelin - Lemon Song Chords & Tabs

 

Lemon Song Chords & Tabs

Led Zeppelin Chords & Tabs

Version: 1 Type: Tab 0 ratings
1 star 2 stars 3 stars 4 stars 5 stars
comments

Lemon Song Tab

standard tuning, EADGBe

/\    = slide up, down
v     = vibrato
x     = muted string
h,p   = hammer on, pull off
()    = grace note
b()   = bend (to the pitch of this fret)
r     = return bend


Intro:
                                     
|---------------------------------|-------------------------------|
|-0---0---0---0---0---------------|-8v--------8--(8)-/(14)\-------|
|---------------------------------|-7v--x-x---7--(7)-/(13)\-------|
|-2---2---2---2-------------------|-6v--x-x---6--(6)-/(12)\-------|
|---------------------------------|-7v--x-x---7--(7)-/(13)\-------|
|-0---0---4---4---5---5---7--\0---|-------------------------------|



                                               
|---------------------------------|-------------------------------|
|-----0---0---0---0---0---0---0---|-8---------8v------12--12-12\--|
|---------------------------------|-7---x-x---7v------12--12-12\--|
|---------2---2-------------------|-6---x-x---6v------12--12-12\--|
|---------------------------------|-7---x-x--------/14--14--------|
|-0---0---4---4---5---5---7---0---|-------------------------------|
  

                                                
|---------------------------------|--------------------------------------|
|---------0---0---0---0---0-------|-8v----------8----------3-------------|
|---------------------------------|-7v------0---7----0-2h4---0-4p2p0-----|
|---------2---2-------------------|-6v----------6--------------------2p0-|
|---------------------------------|-7v----------7------------------------|
|-0---0---4---4---5---5---7\--0---|--------------------------------------|
  


|---------------------------------|----------------------------|
|-----------------0---0-----------|-8-----7---8------(8)/------|
|---------------------------------|-7---x-7---7------(7)/------|
|(0)------------------------------|-6---x-7---6------(6)/------|
|---------------------------------|-7---x-----7------(7)/------|
|-0---0---4---4---5---5---7\--0---|----------------------------|


[ Tab from: http://www.guitartabs.cc/tabs/l/led_zeppelin/lemon_song_tab.html ]
Verse 1:
                                     
|---------------------------------|---------------------------------|
|---------0---0---0---0---0-------|-------------8--------------(8)\-|
|---------------------------------|-7v------x---7--------------(7)\-|
|---------------------------------|-6v------x---6--------------(6)\-|
|---------------------------------|-7v------x---7--------------(7)\-|
|-0---0---4---4---5---5---7-\-0---|---------------------------------|



                                     
|---------------------------------|---------------------------------|
|---------0---0---0---0---0---0---|-8v----------8-------------------|
|---------------------------------|-7v------x---7-------------------|
|---------------------------------|-6v------x---6---------5---------|
|---------------------------------|-7v------x---7-----5-7-----5-7v--|
|-0---0---4---4---5---5---7\--0---|---------------------------------|



                                                         
|---------------------------------|----------------------------|
|---------------------------------|----------------------------|
|-----------------0---0-----------|-2--------------------------|
|---------------------------------|-2-----------2--------------|
|-0---0---4---4---5---5---7\--0---|-0--------------------------|
|---------------------------------|-------------3(5)-r(3)v-----|




|---------0-----------------------|---------------------------------|
|---------0---0---0---0-----------|-8----------8--------------------|
|---------------------------------|-7----------7--------------------|
|---------------------------------|-6----------6--------------------|
|---------------------------------|-7----------7--------------0---1-|
|-0---0---4---4---5---5---7\--0---|--------------------4------------|




|---------------------------------|---------------------------------|
|-------------3-------3-----3-----|-------2-------------------------|
|---------2-------2-------2---2---|---0-----0---0-0---0-0-0-----0-0-|
|---------------------------------|---------------------------------|
|-2-----------------------------0-|-----------0-----0-------0-------|
|---------------------------------|---------------------------------|
Comments