Led Zeppelin - Kashmir Chords & Tabs

 

Kashmir Chords & Tabs

Led Zeppelin Chords & Tabs

Version: 5 Type: Tab 0 ratings
1 star 2 stars 3 stars 4 stars 5 stars
comments

Kashmir Tab

	"Kashmir"
	  ~Led Zeppelin

	I am only tabbing out the main riff because 1) I am a bass player and it's the only part I know, and 2) I am tired of seeing it tabbed elsewhere incorrectly, making it sound very empty. The chords Jimmy Page used were (if not these exact chords) very close to these:
[ Tab from: http://www.guitartabs.cc/tabs/l/led_zeppelin/kashmir_tab_ver_5.html ]
e|--5-5-5--|--5-5-5--|--5-5-5--|--5-5-5--|--5-5-5--|--5-5-5--|
B|--3-3-3--|--3-3-3--|--3-3-3--|--3-3-3--|--3-3-3--|--3-3-3--|
G|--2-2-2--|--2-2-2--|--3-3-3--|--3-3-3--|--4-4-4--|--4-4-4--|
D|--0-0-0--|--0-0-0--|--0-0-0--|--0-0-0--|--0-0-0--|--0-0-0--|
A|---------|---------|---------|---------|---------|---------|
E|---------|---------|---------|---------|---------|---------|

e|--5-5-5--|--5-5-5--|--5-5-5--|
B|--3-3-3--|--3-3-3--|--3-3-3--|
G|--5-5-5--|--5-5-5--|--7-7-7--|
D|--0-0-0--|--0-0-0--|--0-0-0--|
A|---------|---------|---------|
E|---------|---------|---------|

	I'm not quite sure about this last chord. Your intonation has to be impeccable for it to sound right. If it doesn't, just mute the G string.
	In any case, try it. It sounds much fuller than any other tabs I've seen.
Comments