Led Zeppelin - Kashmir Chords & Tabs

 

Kashmir Chords & Tabs

Led Zeppelin Chords & Tabs

Version: 3 Type: Tab 3 ratings
1 star 2 stars 3 stars 4 stars 5 stars
comments

Kashmir Tab

Kashmir
Led Zeppelin

Hope all you guys enjoy this tab! Rock Hard!!!!!!!

E----------------------------------------------------------
B----------------------------------------------------------
G-2-2-2-----3-3-3-----4-4-4-----5-5-5-----7-7-7--2-2-2-----
D-0-0-0--0--0-0-0--0--0-0-0--0--0-0-0--0--0-0-0--0-0-0--0--
A----------------------------------------------------------
E----------------------------------------------------------
(Repeat five times)
[ Tab from: http://www.guitartabs.cc/tabs/l/led_zeppelin/kashmir_tab_ver_3.html ]
E-3-2--1--0---------------------
B-----------3-3-----------------
G---------------0-0--2--2-3-2-0-
D-------------------------------
A-------------------------------
E-------------------------------
(Repeat five times)

E-------------------------------------
B-------------------------------------
G------------9------------------------
D-2----2--2--7--2--------3-2-0---0-2--
A-0----0--0-----0--------------4------
E-------------------------------------
(Repeat five times)
Comments