Led Zeppelin - Kashmir Chords & Tabs

 

Kashmir Chords & Tabs

Led Zeppelin Chords & Tabs

Version: 1 Type: Tab 11 ratings
1 star 2 stars 3 stars 4 stars 5 stars
comments

Kashmir Tab

hey all u zeppelin fans   here is the CORRECT way to play Kashmir
for this, E=D (so tune down) and listen to the song for timing

RIFF 1
e -----------------------------------------------------I
B -----------------------------------------------------I
G --222--222--333--333--444--444--555-555--777---------I
D --000--000--000--000--000--000--000-000--000---------I
A -----------------------------------------------------I
E ----------0---------0---------0---------0------------I

here's the part played like the organ, it's Zoso so
it has that 12 string sound (it's not a distortion)

RIFF 2
e -----------------------------------------------------I
B ----8---7--------6---5-------------------------------I
G ----7---7--------5---5--------3-2--------------------I
D ----9---7--------7---5-------------------------------I
A -----------------------------------------------------I
E -----------------------------------------------------I
[ Tab from: http://www.guitartabs.cc/tabs/l/led_zeppelin/kashmir_tab.html ]
e -----------------------------------------------------I
B ----5---3------3---1---------------------------------I
G ----5---4------3---2---------------------------------I
D ----5---5------3---3--------3-2-0--------------------I
A -----------------------------------------------------I
E -----------------------------------------------------I

Play RIFF 1

RIFF 3
e -----------------------------------------------------I
B -----------------------------------------------------I
G -----------------------------------------------------I
D ----3-2-0-------0------------------------------------I
A ------------0-2--------------------------------------I
E -----------------------------------------------------I
 RIFF 4
e -----------------------------------------------------I
B -----------------------------------------------------I
G -----------------------------------------------------I
D -----------------7/0---------------------------------I
A ----0----0-0-----------------------------------------I
E -----------------------------------------------------I
			THE END

Tabbed by dan maguire (with a little help from teacher Ed)
Comments