Led Zeppelin - In My Time Of Dying Chords & Tabs

 

In My Time Of Dying Chords & Tabs

Led Zeppelin Chords & Tabs

Version: 3 Type: Tab 1 rating
1 star 2 stars 3 stars 4 stars 5 stars
comments

In My Time Of Dying Tab

   
Song: In My Time Of Dying
Band: Led Zeppelin
Tabbed by: SpRiNgWaFfLe

Tune the 2nd 3rd and 4th strings up a whole step. If you're afraid of breaking a string then tune it down to open C or open D. But if you plan on playing with the record it won't sound right.

Open A (low to high) E A E A C# E

Note: Use a slide if you have one, a lighter will do just fine.

Intro
E --------------------------------------------------
C#--------------------------------------------------
A --3\2-0-2/3/5---0-3\2-0-/12---3\2-0-2/3/5---0-3\0-
E --3\2-0-2/3/5---0-3\2-0-/12---3\2-0-2/3/5---0-3\0-  repeat
A --------------------------------------------------
E --------------------------------------------------
                          slowly slide down to 0 ^
[ Tab from: http://www.guitartabs.cc/tabs/l/led_zeppelin/in_my_time_of_dying_tab_ver_3.html ]
E -------------------------|------------------------
C#----------0-7-0-5-3\0--0-|----------0-7-0-5-3\0---
A -0-3--5------------------|-0-3--5-----------------
E -0-3--5------------------|-0-3--5-----------------  repeat first
A -0-3--5------------------|-0-3--5-----------------  part once
E -------------------------|------------------------
                        slowly slide down to 0 ^

  1              2                 
E --------------|-----------------
C#--0---0---0---|-0-0----0---0----
A ----7---5---3-|-----/7---5---3--  Explanation:
E ----7---5---3-|-----/7---5---3--    1 (1x)
A --------------|-----------------    2 (3x)
E --------------|-----------------    3 (2x)
                                      2 (1x)
  3                  4                3 (1x)
E ------------------|-------------    4 (1x)
C#-0-0-----0---0----|-0-0---------
A -----/12---5---3--|-----/5------
E -----/12---5---3--|-----/5------
A ------------------|-------------
E ------------------|-------------
Comments