Led Zeppelin - I Got A Women Chords & Tabs

 

I Got A Women Chords & Tabs

Led Zeppelin Chords & Tabs

Version: 1 Type: Tab 0 ratings
1 star 2 stars 3 stars 4 stars 5 stars
comments

I Got A Women Tab

   
ok i looked all over for the song and couldnt fing it anywhere
or i guess i just didnt know the real name of the song but
here it is (I GOT A WOMEN) by Led Zepplin


its really its 3 cords with a little switch up
           TUNE GUITAR  UP ONE STEP FROM E

G  F  C
3  1   0
3  1   1
0  2   0
0  3   2
2  0   3
3  0   0
[ Tab from: http://www.guitartabs.cc/tabs/l/led_zeppelin/i_got_a_women_tab.html ]
i suggest useing your pointer finger for the first part
      G
E\---------------------------------------------------------------------------------------------------------------------------------------\
B\---------------------------------------------------------------------------------------------------------------------------------------\
G\-----------------0---0--0--0--0--0--0-------------0---0--0--0--0--0--0-------------0---0--0--0--0--0--0-------------0---0--0--0--0-----\
D\------------0-2-----0--0--0--0--0--0--------0-2-----0--0--0--0--0--0--------0-2------0--0--0--0--0--0--------0-2-----0--0--0--0--------\
A\-------0-2----------2--2--2--2--2--2---0-2----------2--2--2--2--2--2---0-2-----------2--2--2--2--2--2---0-2----------2--2--2--2--------\
E\----------------------3--3--3--3--3--3-----------------3--3--3--3--3--3-------------------3--3--3--3--3--3-----------------3--3--3--3--\
         F  F         C
E\----1--1--------0----------------------------------------------------------------\
B\----1--1----0--1---\-------------------------------------------------------------\                  G   F  C
G\----2--2----0--0-----------------------------------------------------------------\
D\----3--3----0--2---\                                 D\--------0-2---------------\
A\----0--0--------3---\                                 A\---0-2------2--0---------\
E\----0--0--------0---\                                 E\---------------------3\--\               repeat throught out the song
Comments