Led Zeppelin - How Many More Times Chords & Tabs

 

How Many More Times Chords & Tabs

Led Zeppelin Chords & Tabs

Version: 1 Type: Bass Tab 0 ratings
1 star 2 stars 3 stars 4 stars 5 stars
comments

How Many More Times Bass Tab

#----------------------------------PLEASE 
NOTE---------------------------------#
#This file is the author's own work and represents their interpretation of 
the #
#song. You may only use this file for private study, scholarship, or 
research. #
#Or I'll Sue your ass for all the money you 
got.------------------------------ #
#-----------------------------------------------------------------------------
-#

                        HOW MANY MORE TIMES 
                             Bass Tab

Tabbed By: Jerry Loch (Redsand129@aol.com)
Song By: Led Zeppelin

Note: equal sign (=) means let ring 
      asterisk (*) means stop ring

This is my 1st tab so dont get all worked up cuz' you think its 
wrong or somethin'. But this is how I play it.

  ____________23 times_____________
/                                 \
G|----------------|----------------|
D|----------------|----------------| 
A|----7--5----5---|----7---5------5| 
E|0-------7-------|0-----------7---| 

G|----------------|----------------|
D|----------------|----------------| 
A|----7--5----5---|5-5-5-----------|
E|0-------7-------|--------5-5-5---| 

  ____________14 times_____________
/                                 \
G|----------------|----------------|
D|----------------|----------------| 
A|----7--5----5---|----7---5------5| 
E|0-------7-------|0-----------7---| 

G|----------------|----------------|
D|----------------|----------------| 
A|5-5-5-7---------|5---------------|
E|----------------|----------------| 

  _____________8 times_____________
/                                 \
G|----------------|----------------|
D|----------------|----------------| 
A|7---------------|5---------------|
E|----------------|----------------|

  _________3 times_________
/                         \
G|-------------------------|
D|-------------------------|
A|7--7777--7777--7775-2-5--|
E|-------------------------|
[ Tab from: http://www.guitartabs.cc/tabs/l/led_zeppelin/how_many_more_times_btab.html ]
  ____________3 times______________
/                                 \
G|----------------|----------------|
D|----------------|----------------|
A|7777777777777777|7777777777777777|
E|----------------|----------------|

  ___Use this in the bowing solo___
/                                 \
G|----------------|----------------|
D|----------------|----------------|
A|7---------------|5---------------|
E|----------------|----------------|

End Of Bowing solo
  ____________3 times______________
/                                 \
G|----------------|----------------|
D|----------------|----------------|
A|7777777777777777|7777777777777777|
E|----------------|----------------|

This is when Rob goes into the Oh Rosie part.
           
            Repeat it 2x.
G|----------------|----------------|
D|----------------|----------------|
A|------------7---|------------7---|
E|----------------|----------------|

Steal away..
G|----------------|----------------|
D|----------------|----------------|
A|----------9-7---|------------7---|
E|----------------|----------------|

  ____________10 times_____________
/                                 \
G|----------------|----------------|
D|----------------|----------------|
A|------------7---|------------7---|
E|----------------|----------------|

Ain't no need to run.............
G|----------------|----------------|----------------|----------------|
D|----------------|----------------|----------------|----------------|
A|7-7-7-7-7-7-7-7-|5-5-5-5-5-5-5-5-|3-3-3-3-3-3-3-3-|1-1-1-1---------|
E|----------------|----------------|----------------|------------3-5-|

                   ____7 times_____               
                  /                \
G|----------------|--R-------------|
D|----------------|----E-----------|
A|----------------|------S---------|
E|5==============*|--------T-------|

Main Riff until song ends (one where you repeat it 23x)

Comments